Misc Unsigned Bands

Misc Unsigned Bands - Quickdraw - Miss Hawaiian Tropic Bass guitar tab

Miss Hawaiian Tropic

Intro

---------------------------------------------|

---------------------------------------------|play 2

-----8--10--8--------------------------------|

--/8-----------------------------------------|

end on

---------------------------------------------|

---------------------------------------------|

---------------------------------------------|

-8~~-----------------------------------------|

verse

---------------------------------------------------|

--5--3--2----------------------------3/2-----------|

----------3--5--3--2--3---------3--5-----3/5-3-----|

---------------------------3--5--------------------|

chorus

----------------------------------------------------|

----2--3--5--3--2-----------------------------------|

--3----------------3--5-----7---7---5---5-----------|

--------------------------5---5---3---3-------------|

then just play verse for post chorus

and so on

jah blessAdded by tabs-database.com and our distinguished partners

Get this song at:  amazon.com sheetmusicplus.com

Share your thoughts

0 Comments found