Misc Unsigned Bands

Misc Unsigned Bands - Blondatta - Johnnys Coming guitar tab

Blondatta is a new punk-rock band from Spain who´s got a new two-side

single, "No Wave - Johnny´s coming". It was created in January,

2004.They don´t have official web page, but the leader´s e-mail is the

following: mrc19@hotmail.com

JOHNNY´S COMING:

----------------

E----------------------------------------------------------------------

B----------------------------------------------------------------------

G----------------------------------------------------------------------

D----------------------------------------------------------------------

A----------------0-----1-2----------------------------0-----1-2--------

E-----0-0--3--0-----0----------------------0-0--3--0-----0-------------

. . . . . . . . . . . . . . . . .

Run Away! Run Away! Run Away! Run Away!

E----------------------------------------------------------------------

B----------------------------------------------------------------------

G------------------------------------------2-----------------2---------

D-----2-----------------2------------------2-----------------2---------

A-----2-----------------2------------------0-----------------0---------

E-----0-----------------0----------------------------------------------

Johnny´s coming - brings a stick with him - think his mind´s storming

- and about to hit

E----------------------------------------------------------------------

B----------------------------------------------------------------------

G----------------------------------------------------------------------

D----------------0-----1-2----------------------------0-----1-2--------

A-----0-0--3--0-----0----------------------0-0--3--0-----0-------------

E----------------------------------------------------------------------

. . . . . . . . . . . . . . . .

During the solo, play as he´s singing.

Looks odd, but when played with 2 guitars, like on the record, it´s

great. The bass line is superb.

Get this song at:  amazon.com sheetmusicplus.com

Share your thoughts

0 Comments found