Misc Unsigned Bands

Misc Unsigned Bands - A Final Misconception - I Cant Remember guitar tab

This is a new band that needs a chance yep

Tabbed By: Kyle

Standard Tuning

INFO KEY -

.... = palm mute

^ = let ring

G1 = lead

INTRO - 4 times

G1 -

----------------------|

----------------------|

----------------------| do each pair 4 times each

----------------------|

-------7---------5----|

-5-5-5-----3-3-3------|

.......................

--------------------|

--------------------|

--------------------| do each pair 2 times each

--------4---------3-|

--2-2-2-----1-1-1---|

--------------------|

....................

find the pattern out

| 3 times |after 3rd time

---|---------|------REPEAT-2-TIMES-EACH-ROUND|-----------------|

---|---------|-------------------------------|-----------------|

---|----5---4|--------12-----12-----12-------|12---11---5---4--|

-2-|----5---4|---------0------0------0-------|-0----0---0---0--|

-2-|----3---2|--------10-----10-----10-------|10----9---3---2--|

-0-|---------|--0-0-0----0-0----0-0----------|-----------------|

^^^ ...... ... ...

---------------------15-X5----------------------|

---------------------12-------------------------| 3 times

2-X5--5-X4----7--X4---------5-X4---4--X4--------|

2-----5-------7-------------0------0------------|

0-----3-------5-------------3------3------------|

------------------------------------------------|

-------------------------|

-------------------------|

-------------------------| 2 times

-2-X5--5-X5--10-X5--9-X5-|

-2-----5-----10-----9----|

-0-----3------8-----7----|

---|-acoustic guitar---------|------------------------|

---|-------------------------|------------------------| about 4 or 5 times

---|-12-X7-11-X7--7-X7--4-X7-|------------7-X7--------|

-2-|--0-----0-----0-----0----|-2-X7-5-X7--7-----7-X7--|

-2-|-10-----9-----5-----2----|-2----5-----5-----7-----|

-0-|-------------------------|-0----3-----------5-----|

^^^

END

Get this song at:  amazon.com sheetmusicplus.com

Share your thoughts

0 Comments found