Misc Unsigned Bands

Misc Unsigned Bands - Crusiform - Face-to-face guitar tab

this is tabs for my band. We are newly formed.

standard tuning

repeat 4x gtr. 2 comes in after 2nd time and plays same as gtr.1 whole song

e-----x---x-x---------x---x-x---------x---x-x---------x---x-x-----|

b-----x---x-x---------x---x-x---------x---x-x---------x---x-x-----|

g-----x---x-x---------x---x-x---------x---x-x---------x---x-x-----|

d-7-7-x-7-x-x-7-7-3-3-x-3-x-x-3-3-5-5-x-5-x-x-5-5-3-3-x-3-x-x-3-3-|

a-7-7-x-7-x-x-7-7-3-3-x-3-x-x-3-3-5-5-x-5-x-x-5-5-3-3-x-3-x-x-3-3-|

E-5-5-x-5-x-x-5-5-1-1-x-1-x-x-1-1-3-3-x-3-x-x-3-3-1-1-x-1-x-x-1-1-|

make sure you play this very fast. could be difficult for begginers

e------------------------------xx---xx-|

b------------------------------xx---xx-|

g------------------------------xx---xx-|

d-7--7--77-3--3--33-9--9--99-5-xx-3-xx-|

a-7--7--77-3--3--33-9--9--99-5-xx-3-xx-|

E-5--5--55-1--1--11-7--7--77-3-xx-1-xx-|

this is played much slower. repeat 2x and go back to beggining.

this was tabbed by crusi-man, guitarist for Crusiform. Make sure to use distortion. "To

no fear of death is to have no fear at all."-H.G.

Get this song at:  amazon.com sheetmusicplus.com

Share your thoughts

0 Comments found