Misc Unsigned Bands

Misc Unsigned Bands - Calm Before The Breeze - Calm Before The Breeze guitar tab

sup! this is a song that my band wrote in like 2 minutes its not the whole song

but it is a good portion of it we are including a solo to the song but we haven't

written the solo yet it will get posted soon enuff

artist: calm before the breeze

song: calm before the breeze

written by: jared & cameron

tuning: dropped- d

guitar 1 (acoustic)

intro:

-0-----------5-----------000--0--0--0----------------

-0--------6-----6--------000--0--0--0----------------

-0--5--7-----------5-----555--5--3--2----------------4x

-0--------------------6--666--6--4--3----------------

-----------------------------------------------------

-----------------------------------------------------

verse:

-------------5---------------------------------------

----------6-----6------------------------------------

-0--5--7-----------5-----555--5--3--2----------------8x

-0--------------------6--666--6--4--3----------------

-----------------------------------------------------

-----------------------------------------------------

guitar (electric w/ dist.)

chorus:

-----------------------------------------------------

-----------------------------------------------------

-7-9-7-5--3vvvvvv-----------2--1--3--5---------------3x

-7-9-7-5------------4----3--------3--5---------------

-5-7-5-3--------------2-----------1--3---------------

-----------------------------------------------------

Get this song at:  amazon.com sheetmusicplus.com

Share your thoughts

0 Comments found