Misc Unsigned Bands

Misc Unsigned Bands - Pink Leopard - Tear Me Apart guitar tab

----------------------------------------------------------------------------

Tear Me Apart - Pink Leopard

-------------------------------------------------------------------------------

This is a unsigned band out of Cottonwood Arizona! They Rule!!!

Tabbed by: ThePinkLeopard

Email:Chemical_leopard@hotmail.com

Tuning:e a d g b e

Intro-Played Clean Play 4 Times

e|-------------------------------------------------------------------------|

B|-------------------------------------------------------------------------|

G|-------------------------------------------------------------------------|

D|-----4-0-----4-0---4-0---4-0----0----------------------------------------|

A|---2-------0-------------------------------------------------------------|

E|-0-------0-------3-----0------3------------------------------------------|

Chorus-Heavy Dis. Play 4 Times

e|-------------------------------------------------------------------------|

B|-------------------------------------------------------------------------|

G|-------------------------------------------------------------------------|

D|-----4-0-----4-0---4-0---4-0---0-----------------------------------------|

A|---2-------0-------------------------------------------------------------|

E|-0-------0-------3-----0-----3-------------------------------------------|

Verse-Palm Mute Play 4 Times

e|-------------------------------------------------------------------------|

B|-------------------------------------------------------------------------|

G|-------------------------------------------------------------------------|

D|-----4-0-----4-0---4-0---4-0---0-----------------------------------------|

A|---2-------0-------------------------------------------------------------|

E|-0-------0-------3-----0-----3-------------------------------------------|

Pre-Chorus-Heavy Dis. Play 4 Times

e|-------------------------------------------------------------------------|

B|-------------------------------------------------------------------------|

G|------------------------------------------second time thru---------------|

D|-4-4-4-x-x-x-x-4-4---------------------------------7-7-7-7---------------|

A|-2-2-2-x-x-x-x-2-2-5-5-5-x-x-x-x-5/7-7-7-----------5-5-5-5---------------|

E|-------------------3-3-3-x-x-x-x-3/5-5-5---------------------------------|

Bridge-Palm Mute Play 4 Times

e|-------------------------------------------------------------------------|

B|-------------------------------------------------------------------------|

G|-------------------------------------------------------------------------|

D|--4--4----------7--7-----------------------------------------------------|

A|-2-22----5--5--5-55---7--7-----------------------------------------------|

E|--------3-33---------5-55------------------------------------------------|

Intro x4

Chorus x4

Verse x4

Pre-Chorus x4

Chorus x4

Verse x4

Pre-Chorus x4

Chorus x4

Bridge x4

Chorus x8

Intro x4

| / slide up

| slide down

| h hammer-on

| p pull-off

| ~ vibrato

| + harmonic

| x Mute note

===============================================================================Tear

Me Apart!

Get this song at:  amazon.com sheetmusicplus.com

Share your thoughts

0 Comments found