Misc Unsigned Bands

Misc Unsigned Bands - The Joe Pirret Experience - The Dark Bass guitar tab

----------------------------------------------------------------------------

The Dark - The Joe Pirret Experience

----------------------------------------------------------------------------

Tabbed By : Pirret67

e-mail: webmaster at tabs-database.com.com

Myspace: www.myspace.com/thejoepirretexperience

Tuning:Standard

Intro/Verse:

G|---------------|---------------|---------------|---------------||

D|---------------|---------------|---------------|---------------||

A|-0--0--0-0-0-0-|-2---2-3-3-3-3-|---------------|---------------||

E|---------------|---------------|-1--1--1-1-1-1-|-3---3-4-4-4-4-||

^ that x8

Pre Chorus:

G|---------------|---------------|---------------|---------------||

D|---------------|---------------|---------------|---------------||

A|-0--0--0-0-0-0-|---------------|-0--0--0-0-0-0-|---------------||

E|---------------|-3---3-4-4-4-4-|---------------|-1---1-3-3-3-3-||

^ that x2

Chorus:

G|-----------------|-----------------|-------------|------------||

D|-----------------|-----------------|-------------|------------||

A|-0-0-0-0-0-0-0-0-|-0-0-0-0-0-0-0-0-|-0--0--------|-------0--0-||

E|-----------------|-----------------|-------1--1--|-3--3-------||

^ that x2

Bridge:

G|------------|------------|------------|------------|------------|

D|------------|-0--0--2--2-|------------|-2--2--2--2-|------------|

A|-0--0--3--3-|------------|-0--0--3--3-|------------|-0--0--3--3-|

E|------------|------------|------------|------------|------------|

G|------------|------------|------------||

D|-0--0--2--2-|------------|-0--0-------||

A|------------|-0--0--3--3-|-------0----||

E|------------|------------|------------||

Outro:

G|------------|------------|------------|-------------||

D|------------|------------|------------|-------------||

A|-0--0--0--0-|------------|------------|-0-----------||

E|------------|-4--4--3--3-|-1--1--1--1-|-------------||

Song Order:

Intro.

Verse.

Chorus.

Verse.

Chorus.

Bridge.

Chorus.

Verse.

Chorus.

Outro.

I think thats it. Any comments or suggestions - email me.

webmaster at tabs-database.com.com

Added by tabs-database.com and our distinguished partners

Get this song at:  amazon.com sheetmusicplus.com

Share your thoughts

0 Comments found