Misc Unsigned Bands

Misc Unsigned Bands - Rockabunny - The Dead Generation guitar tab

P = Pull Off

Introduction:

E---3-3-0-0---5-5-7-3-3------------------------------------3--|

B---0-0-3-3-----------------------------------------------3---|

G---0-0-3-3---5-5-7-3-3----------------------------------3----|

D---0-0-3-3---------------------------------------------3-----|

A---2-2-------------------4-5-6-7-4-5-6-7-6-5-4-7------3------|

E---3-3---------------------------------------------3-3-------|

E--------1-----2-----3-----4-----5----------------------------|

B-------1-----2-----3-----4-----5-----------------------------|

G------1-----2-----3-----4-----5-----2-2-2-2-2---5-5-5-5-5-7--|

D-----1-----2-----3-----4-----5------2-2-2-2-2---5-5-5-5-5-7--|

A----1-----2-----3-----4-----5--------------------------------|

E---1-----2-----3-----4-----5---------------------------------|

Verse:

E---------1------2------3--|

B--------1------1------1---|

G-------1------1------1----|

D----2-2----3-3----1-1-----|

A---1------2------3--------|

E---1------2------3--------|

Pre-Chorus:

E--------|

B--------|

G--3-3-4-|

D--3-3-4-|

A--------|

E--------|

Chorus:

E-------1-----2-----3-----4-----5-----3---7p-|

B------1-----2-----3-----4-----5-----3-------|

G-----1-----2-----3-----4-----5-----3---5----|

D----1-----2-----3-----4-----5-----3----5----|

A---1-----2-----3-----4-----5-----3----------|

E--1-----2-----3-----4-----5-----3-----------|

Verse

Pre-Chorus

ChorusAdded by tabs-database.com and our distinguished partners

Get this song at:  amazon.com sheetmusicplus.com

Share your thoughts

0 Comments found