Misc Unsigned Bands

Misc Unsigned Bands - Obelisk - Computer God guitar tab

COMPUTER GOD

by

OBELISK

INTRO

E|-----------------------------------------------------------------------|

B|-----------------------------------------------------------------------|

G|-----------------------------------------------------------------------|

D|-55----(5)--------55----(5)--------6-6-6-6-6-6-6-6-6-6-6-6-6-6-6-6-----|

A|-33----(3)--------33----(3)--------6-6-6-6-6-6-6-6-6-6-6-6-6-6-6-6-----|

E|-33--------------------------------------------------------------------|

VERSE?CHORUS

E|-------------------------------------------------------------------------|

B|------------------------------------------------------------------------o|

G|-------------------------------------------------------------------------|

D|-------------------------------------------------------------------------|

A|3-3-3-3-3-3-3-3-3-3-3-3-3-3-3-3-3-3-3-3-3-3-3-3-3-3-3-3-3-3-3-3---------o|

E|3-3-3-3-3-3-3-3-3-3-3-3-3-3-3-3-4-4-4-4-4-4-4-4-4-4-4-4-4-4-4-4----------|

PM______________________________________________________________|

BRIDGE

E|-------------------------------------------------------------------------|

B|-------------------------------------------------------------------------|

G|-------------------------------------------------------------------------|

D|-------------------------------------------------------------------------|

A|-3-3-333-3-66-66-8-8--3-3-333-3-6-6-66-5-5----3-5-6-3-5-6-5-6---5-6---5-6|

E|-3-3-333-3-44-44-6-6--3-3-333-3-4-4-44-3-3--------------------4-----4----|

PM___| PM_| PM___| PM__|

SOLO/OUTRO

E|-11-10-8-10-8----8-------------------------------------------------------|

B|--------------11---9-11-9-8-9-8----8-------------------------------------|

G|--------------------------------10---10-8-10-8-7-8-7-----------7----7-8-7|

D|-----------------------------------------------------8-10-8-10---10------|

A|-------------------------------------------------------------------------|

E|-------------------------------------------------------------------------|

E|------------8----(8)--------8H11P8--------8H11P8--------8H11P8-----------|

B|------11-11B13---(13)--------------8H11P8--------8H11P8--------8H11P8----|

G|-8-10--------------------------------------------------------------------|

D|-------------------------------------------------------------------------|

A|-------------------------------------------------------------------------|

E|-------------------------------------------------------------------------|

E|-8H11P8--------8H10P8--------8H10P8--------8H10P8--------8H10P8----------|

B|--------8H11P8--------8H11P8--------8H11P8--------8H11P8--------8H11P8---|

G|-------------------------------------------------------------------------|

D|-------------------------------------------------------------------------|

A|-------------------------------------------------------------------------|

E|-------------------------------------------------------------------------|

E|-8H11P8--------8H11P---------8H11P8--------8H11P8------------------------|

B|--------8H11P8--------8H11P8--------8H11P8--------8H11P8-11B13R11B13R11B-|

G|-------------------------------------------------------------------------|

D|-------------------------------------------------------------------------|

A|-------------------------------------------------------------------------|

E|-------------------------------------------------------------------------|

E|-------------------------------------------------------------------------|

B|13----R11--11-9-8-9-8----8-----------------------------------------------|

G|----------------------10---10-8-10-8-------------------------------------|

D|-------------------------------------8-10--------------------------------|

A|--------------------------------------------------------5---5-6-5-6-8-6-8|

E|--------------------------------------------------8-6-8---8--------------|

E|-------------------------------------------------------------------------|

B|-------------------------------------------------------------------------|

G|-------------------------------------------------------------------------|

D|-5---5-6-5-6-8-6-5-------------------------------------------------------|

A|---8---------------8-6-5-------------------------------------------------|

E|-------------------------8-----------------------------------------------|

This is one of my favorite Obelisk songs! I love the solo. Sorry the Intro

#1 isn't tabbed. I originally tabbed it down but when my band cut it out

of the song I figured "why bother?" Enjoy! NOTE: It may be hard to learn

this song because we are currently a local band and not many people have

even heard it, but those of you who have, enjoy it! Later!

Key: c'mon, who doesn't know it, and if you don't, go to just about any other tab to find it.

Added by tabs-database.com and our distinguished partners

Get this song at:  amazon.com sheetmusicplus.com

Share your thoughts

0 Comments found