Misc Unsigned Bands

Misc Unsigned Bands - Exsurant - Burning World guitar tab

Exsurant - Burning World

Tabbed By - Joel Stephenson

Tuning: Dropped D (DADGBE)

Riff 1:

Guitar 1

E|-----------------------------|

B|-----------------------------|

G|-----------------------------|x3

D|-----------------------------|

A|-----------------------------|

D|-0-0-7-0-8-0-0-5-0-7-0-2-0-3-|

E|--------------------------------|

B|--------------------------------|

G|--------------------------------|

D|--------------------------------|

A|-----10---8---7-------10--12--7-|

D|-8-8---8---8-----7-7----7---7---|

Half way through riff 1 guitar 2 comes in.

Guitar 2

E|----------------------|

B|----------------------|

G|-12--10--9----7--9--5-|

D|----------------------|

A|----------------------|

D|----------------------|

E|-----------------------------|

B|-----------------------------|

G|-----------------------------|x3

D|-0-0-7-0-8-0-0-5-0-7-0-2-0-3-|

A|-----------------------------|

D|-----------------------------|

E|-------------------------------|

B|-------------------------------|

G|-----12--10--9-------10--12--9-|

D|-8-8---8---8-----7-7---7---7---|

A|-------------------------------|

D|-------------------------------|

Riff 2:

Guitar 1

E|-----------------------------|

B|-----------------------------|

G|-----------------------------|x3

D|-----------------------------|

A|-----7---8-----5---7---2---3-|

D|-0-0---0---0-0---0---0---0---|

E|--------------------------------|

B|--------------------------------|

G|--------------------------------|

D|--------------------------------|

A|-----10--8---7-------7---8---10-|

D|-8-8---8---8-----7-7---7---7----|

E|-----------------------------|

B|-----------------------------|

G|-----------------------------|x3

D|-----9---10----7---9---5---6-|

A|-----7---8-----5---7---3---3-|

D|-0-0---0---0-0---0---0---0---|

Guitar 2:

E|--------------------------------|

B|--------------------------------|

G|--------------------------------|

D|--------------------------------|

A|0-------------------------------|

D|0-------------------------------|

E|--------------------------------|

B|--------------------------------|

G|--------------------------------|

D|--------------------------------|

A|-----10--8---7-------7---8---10-|

D|-8-8---8---8-----7-7---7---7----|

E|-----------------------------|

B|-----------------------------|

G|-----------------------------|x3

D|-----9---10----7---9---5---6-|

A|-----7---8-----5---7---3---3-|

D|-0-0---0---0-0---0---0---0---|

E|--------------------------------|

B|--------------------------------|

G|--------------------------------|

D|--------------------------------|

A|-----10--8---7-------7---8---10-|

D|-8-8---8---8-----7-7---7---7----|

Pre-Chorus:

Guitar 1

E|-------------------------------|

B|-------------------------------|

G|-------------------------------|x3

D|-------------------------------|

A|-------------------------------|

D|-0-7h8-0-5h7-0-3h5-0-2h3h5p3p2-|

Guitar 2

E|-------------------------------|

B|-------------------------------|

G|-------------------------------|x3

D|-0-7h8-0-5h7-0-3h5-0-2h3h5p3p2-|

A|-------------------------------|

D|-------------------------------|

Both Guitars

E|-----------------------------------------|

B|-----------------------------------------|

G|-----------------------------------------|

D|-----------------------------------------|

A|-7-7-7-7-7-7-7-7-10-10-10-10-10-10-10-10-|

D|-7-7-7-7-7-7-7-7-10-10-10-10-10-10-10-10-|

Chorus

Guitar 1

E|-----------------------------------------------------------------|

B|-----------------------------------------------------------------|

G|-----------------------------------------------------------------|

D|-----------------------------------------------------------------|

A|-0-0-0-0-0-0-0-0-8-8-8-8-8-8-8-8-7-7-7-7-7-7-7-7-3-3-3-3-3-3-3-3-|

D|-0-0-0-0-0-0-0-0-8-8-8-8-8-8-8-8-7-7-7-7-7-7-7-7-3-3-3-3-3-3-3-3-|

x2

E|------------------------------------------------------------------------|

B|------------------------------------------------------------------------|

G|------------------------------------------------------------------------|

D|------------------------------------------------------------------------|

A|-0-0-0-0-0-0-0-0-8-8-8-8-8-8-8-8-7-7-7-7-7-7-7-7-10-10-10-10-10-10-10-10|

D|-0-0-0-0-0-0-0-0-8-8-8-8-8-8-8-8-7-7-7-7-7-7-7-7-10-10-10-10-10-10-10-10|

Guitar 2

E|-----------------------------------------------------------------------------------------|

B|-----------------------------------------------------------------------------------------|

G|-9-9-9-9-9-9-9-9-10-10-10-10-10-10-10-10-12-12-12-12-12-12-12-12-17-17-17-17-17-17-17-17-|

D|-x-x-x-x-x-x-x-x-x--x--x--x--x--x--x--x--x--x--x--x--x--x--x--x--x--x--x--x--x--x--x--x--|

A|-7-7-7-7-7-7-7-7-8--8--8--8--8--8--8--8--10-10-10-10-10-10-10-10-15-15-15-15-15-15-15-15-|

D|-----------------------------------------------------------------------------------------|

x2

E|-----------------------------------------------------------------------------------------|

B|-----------------------------------------------------------------------------------------|

G|-9-9-9-9-9-9-9-9-10-10-10-10-10-10-10-10-12-12-12-12-12-12-12-12-17-14-14-14-14-14-14-14-|

D|-x-x-x-x-x-x-x-x-x--x--x--x--x--x--x--x--x--x--x--x--x--x--x--x--x--x--x--x--x--x--x--x--|

A|-7-7-7-7-7-7-7-7-8--8--8--8--8--8--8--8--10-10-10-10-10-10-10-10-15-12-12-12-12-12-12-12-|

D|-----------------------------------------------------------------------------------------|

Bridge 1:

Both Guitars

E|-------------------------|

B|-------------------------|

G|-------------------------|

D|-------------------------|

A|-0-0-0-0-0-0-3-3-2-2-2-2-|

D|-0-0-0-0-0-0-3-3-2-2-2-2-|

E|-------------------------|

B|-------------------------|

G|-------------------------|

D|-------------------------|

A|-0-0-0-0-0-0-3-3-5-5-5-5-|

D|-0-0-0-0-0-0-3-3-5-5-5-5-|

Bridge 2:

Guitar 1

E|--------------------------| E|-----------------------------------------|

B|--------------------------| B|-----------------------------------------|

G|--------------------------|x2 G|-----------------------------------------|

D|--------------------------| D|-----------------------------------------|

A|-0------------------------| A|-7-7-7-7-7-7-7-7-10-10-10-10-10-10-10-10-|

D|-0------------------------| D|-7-7-7-7-7-7-7-7-10-10-10-10-10-10-10-10-|

E|--------------------------|

B|--------------------------|

G|--------------------------|x3

D|--------------------------|

A|------5------------5------|

D|-0-5h7--3-5-3-0-5h7-3-7-5-|

Solo:

Guitar 1

E|-----------------------------------------------------------------|

B|-----------------------------------------------------------------|

G|-----------------------------------------------------------------|

D|-----------------------------------------------------------------|

A|-0-0-0-0-0-0-0-0-8-8-8-8-8-8-8-8-7-7-7-7-7-7-7-7-3-3-3-3-3-3-3-3-|

D|-0-0-0-0-0-0-0-0-8-8-8-8-8-8-8-8-7-7-7-7-7-7-7-7-3-3-3-3-3-3-3-3-|

x2

E|------------------------------------------------------------------------|

B|------------------------------------------------------------------------|

G|------------------------------------------------------------------------|

D|------------------------------------------------------------------------|

A|-0-0-0-0-0-0-0-0-8-8-8-8-8-8-8-8-7-7-7-7-7-7-7-7-10-10-10-10-10-10-10-10|

D|-0-0-0-0-0-0-0-0-8-8-8-8-8-8-8-8-7-7-7-7-7-7-7-7-10-10-10-10-10-10-10-10|

E|-16b-14-16----------16b-14-16-18-21-21-| E|-19-21-22b-|

B|-----------16-14-16--------------------| B|-----------|

G|---------------------------------------|x2 G|-----------|

D|---------------------------------------| D|-----------|

A|---------------------------------------| A|-----------|

D|---------------------------------------| D|-----------|

Play the pre-chorus, but guitar 2 comes in after guitar 1 playes it through once.

Riff 1

Riff 2

Pre-Chorus

Chorus

Riff 2 x2

Bridge 1

Chorus x2

Bridge 2

Solo

Pre-Chorus

Chorus x4Added by tabs-database.com and our distinguished partners

Get this song at:  amazon.com sheetmusicplus.com

Share your thoughts

0 Comments found