Misc Unsigned Bands

Misc Unsigned Bands - Holy Smoke - The Smoke Within guitar tab

-------------------------------------------------------------------------------

The smoke within – Holy Smoke

-------------------------------------------------------------------------------

Tabbed by: maiden69*

Tuning: DADGBE

INTRO:

e|--------------------------------------------------------------------------------------|

B|--------------------------------------------------------------------------------------|

G|--------------------------------------------------------------------------------------|

D|---------7----------9--7--------3-------5--3------5-------7-5-------------------------|

A|------7----7----7-----------3----3---3---------5---5---5------------------------------|

D|-----7-------7-----------3---------3---------5-------5--------------------------------|

e|-----------------------------------------------------------------------------------|

B|-----------------------------------------------------------------------------------|

G|------------------------10--10-----------------------------------------------------|

D|-----------10--10------------------------------------------------------------------|

A|-----7--7---------7-7--------------------------------------------------------------|

D|-----7--7---------7-7--------------------------------------------------------------|

(REPEAT)

e|----------------------------------------------------------------------|

B|----------------------------------------------------------------------|

G|----------------------------------------------------------------------|

D|-------7-7-X-7-7-X-7----3-3-X-3-3-X-3----5-5-X-5-5-X-5---2-2-2---3-3--|

A|-------7-7-X-7-7-X-7----3-3-X-3-3-X-3----5-5-X-5-5-X-5---2-2-2---3-3--|

D|-------7-7-X-7-7-X-7----3-3-X-3-3-X-3----5-5-X-5-5-X-5---2-2-2---3-3--|

(REPEAT AND ON THE LAST TIME END ON 555 INSTEAD OF 333)

VERSE:

(PALM MUTING NOW STARTS)

e|----------------------------------------------------------------|

B|----------------------------------------------------------------|

G|----------------------------------------------------------------|

D|------7-7-7-7-7-7-7---3-3-3-3-3-3-3---5-5-5-5-5-5-5----2-2-2-2--|

A|------7-7-7-7-7-7-7---3-3-3-3-3-3-3---5-5-5-5-5-5-5----2-2-2-2--|

D|------7-7-7-7-7-7-7---3-3-3-3-3-3-3---5-5-5-5-5-5-5----2-2-2-2--|

e|-----------------|

B|-----------------|

G|-----------------|

D|------3-3-3-3-3--|

A|------3-3-3-3-3--|

D|------3-3-3-3-3--|

(REPEAT AND LAST TIME END ON 555--|

CHORUS:

e|--------------------------------------------------------------------|

B|--------------------------------------------------------------------|

G|--------------------------------------------------------------------|

D|------7-7-7-7-s-10-10-10-10--5-5-5-5-5-s-7-7-7-7--3-3-3-3--5-5-5-5--|

A|------7-7-7-7-s-10-10-10-10--5-5-5-5-5-s-7-7-7-7--3-3-3-3--5-5-5-5--|

D|------7-7-7-7-s-10-10-10-10--5-5-5-5-5-s-7-7-7-7--3-3-3-3--5-5-5-5--|

SOLO:

e|---------------------------------------------------------|

B|-------7-7-7-s-10-10-10-s-5-5-5-s-7-7-7-s-3-3-3-s-5-5-5--|

G|---------------------------------------------------------|

D|---------------------------------------------------------|

A|---------------------------------------------------------| ( The tabs for chorus

in the background )

S: slide down

X: Mute note

===============================================================================Added by tabs-database.com and our distinguished partners

Get this song at:  amazon.com sheetmusicplus.com

Share your thoughts

0 Comments found