Misc Unsigned Bands

Misc Unsigned Bands - Bullets Goes Better - Unnoticed She Dies guitar tab

hey guys this is our first band tabs but its just me the main guitar so

the other guitar is cooming soon with the same title just that is gonna

be put guitar two on the title wait for it!! :)

Intro 1

Heavy Distortioned

|-------------------------------------------|x3

|-------------------------------------------|

|---2---2-2---2-------2---2-2---2-2~--------|

|---2-3-2-2-3-2--3~---2-3-2-2-3-2-2~--------|

|---0-3-2-0-3-2--3~---0-3-2-0-3-2-0~--------|

|-----3-2---3-2--3~-----3-2---3-2-----------|

Intro 2

|-------------------------------------------|x6

|-------------------------------------------|3 times are Distortioned

|-------------------------------------------|3 clean and is gonna be done

|-----0--------0---------0--------0---------|Added by tabs-database.com and our distinguished partners

Get this song at:  amazon.com sheetmusicplus.com

Share your thoughts

0 Comments found