Misc Unsigned Bands

Misc Unsigned Bands - Radiant Peppermint Hedgehogs - Instumental guitar tab

Play whole song with light distortion.

Intro/ Chorus

A C D

e--0-0-0-0-------0-0-0--2-2-2-2-2-2--

b--2-2-2-0-------1-1-1--3-3-3-3-3-3--

g--2-2-2-2~--p1--0-0-0--2-2-2-2-2-2--

d--2-2-2-0-------2-2-2--0-0-0-0-0-0-- x4

a--0-0-0-0-------3-3-3---------------

e------------------------------------

Background strumming

A, C, D

Verse

e------------------------------------------------

b------------------------------------------------

g--2-2-2-2-2--0-0-0-0-0-0--3-3-3-3-3--2-2-2-2-2--

d------------------------------------------------

a------------------------------------------------ x8

e------------------------------------------------

pre-chorus

e-------------

b--2--0--3~~--

g--2--0--3~~--

d--2--0--3~~--

a-------------

e-------------

Interlude

e----------

b----------

g--4-4--7--

d--4-4--7--

a--2-2--5--

e----------

solo

e------345----------------------567-------------------------------------

b--345-----345-------------456------------------------------------------

g--------------234-----345----------12~-14-12-14--------12-14-----------

d------------------234---------------------------12-14------------------

a--------------------------------------------------------------0-0-0-0--

e-----------------------------------------------------------------------

e-----------------------------------------------------------------------------5-6-7--

b--77777777-9999999999----------------------------7777777-99999999------------5-6-7--

g----------------------8888888888-10101010101010-------------------888888888--5-6-7--

d-----------------------------------------------------------------------------7-8-9--

a-----------------------------------------------------------------------------7-8-9--

e-----------------------------------------------------------------------------5-6-7--

Outro

e-------------------------------------------3--

b--6-5-4-6-5-4-------6-5-4-6-5-4------------4--

g--7-6-5-7-6-5--222--7-6-5-7-6-5--55555555555--

d--7-6-5-7-6-5-------7-6-5-7-6-5------------5--

a--5-4-3-5-4-3-------5-4-3-5-4-3------------5--

e-------------------------------------------3--

Get this song at:  amazon.com sheetmusicplus.com

Share your thoughts

0 Comments found