Misc Unsigned Bands

Misc Unsigned Bands - Cold Hearted - Something About You That Saves Me guitar tab

----------------------------------------------------------------------------

Something About You That Saves Me - Cold Hearted

----------------------------------------------------------------------------

Tabbed by: Hershey Barazi

Email: webmaster at tabs-database.com.com

Tuning: Standard (E A D G B e)

e|---------------------------------------------------------------------------|

B|---------------------------------------------------------------------------|

G|-9-9-9-9-9-9-9-(0)------------------6-6-6-6-6-6-6-(0)----------------------|

D|-9-9-9-9-9-9-9-(0)-9-9-9-9-9-9-9(0)-6-6-6-6-6-6-6-(0)-7-7-7-7-7-7-7-(0)----|

A|-7-7-7-7-7-7-7-(0)-9-9-9-9-9-9-9(0)-4-4-4-4-4-4-4-(0)-7-7-7-7-7-7-7-(0)----|

E|-------------------7-7-7-7-7-7-7(0)-------------------5-5-5-5-5-5-5-(0)----|

Note: The 0's in parantheses mean that you only play them during the intro, and not the

of the song.

"Yeah, yeah, yeahhh"

e|---------------------|

B|---------------------|

G|-----------2---------|

D|-4---------2---------|

A|-4--(x16)--0--(x8)---|

E|-2-------------------|

"Seems so hard, to talk about this."

e|------------------------------------|

B|------------------------------------|

G|-9---------------6------------------| (x2)

D|-9-------9-------6-------7----------|

A|-7-------9-------4-------7----------|

E|---------7---------------5----------|

End on

e|-----------|

B|-----------|

G|-9---------|

D|-7---------|

A|-7---------|

E|-----------|

"I just love you"

| / slide up

| \\ slide down

| h hammer-on

| p pull-off

| ~ vibrato

| + harmonic

| x Mute note

Lyrics:

She's beautiful inside

There's no reason to hide

Hiding all my tears won't make it right

Why should we sucumb to what life brings us?

We should go our own way, go the farthest distance

yeah, yeah, yeah...

There's something I need to tell you

So, please, don't walk away

If you fall into my arms

I won't let you walk away

There's something about you

That saves me

Something I can't quite place

But I'm begging you, another time

Please don't walk away.

If I could take it all, in just one grasp

I don't know how long I'd last

I guess I would make it out alright

Just fine...

Because you would be there right beside me,

no matter what you have to do.

And then kicks in what saves me,

that one thing I love about you.

There's something I need to tell you

So, please, don't walk away

If you fall into my arms

I won't let you walk away

There's something about you

That saves me

Something I can't quite place

But I'm begging you, another time

Please don't walk away.

There's something I need to tell you

So, please, don't walk away

If you fall into my arms

I won't let you walk away

There's something about you

That saves me

Something I can't quite place

But I'm begging you, another time

Please don't walk away.

There's something about you that saves me.

something about you that saves me.

something about you that saves me.

something about you that saves me.

something about you that saves me.

something about you that saves me.

something about you that saves me.

something about you that saves me.

It seems so hard, to talk about this.

And I can't help the fact that I'm so nervous

Don't know how I can explain without sounding differently

than I usually do

I just love you...

============================================================================Added by tabs-database.com and our distinguished partners

Get this song at:  amazon.com sheetmusicplus.com

Share your thoughts

0 Comments found