Misc Unsigned Bands

Misc Unsigned Bands - The Co-ordinates - Ass guitar tab

D C G Am

-2- -0- -3- -0-|

-3- -1- -3- -1-|

-2- -0- -0- -2-|

-0- -2- -0- -2-|

-x- -3- -2- -0-|

-x- -x- -3- -x-|

Sitting in the back of your car

Am C G

Your just Sitting waiting 'til it gets dark

Am C G

Your just Sitting and your both alone

Am C G

But nothings going on down below

Am G D

Tune:

-2-2---2-2-2---2-0-0---0-3-3---3-|

-----3-------3-------0-------3---|

---------------------------------|

---------------------------------|

---------------------------------|

---------------------------------|

Your date, has all gone wrong

G Am D

Your date, is nothing now

G Am D

Your date, she looks alright

G Am D

But really, Shes an ugly cow

G Am DAdded by tabs-database.com and our distinguished partners

Get this song at:  amazon.com sheetmusicplus.com

Share your thoughts

0 Comments found