Misc Unsigned Bands

Misc Unsigned Bands - Paradox - Ugly On The Inside Bass guitar tab

Paradox - Ugly on the Inside

You can hear this song at www.myspace.com/dreckon

Come in on the 3rd bar (listen for the song for exact timing as

it is quite high-tempo).

Keep repeating this until you reach the chorus which is played the

same.

Verse:

G-9-9-9-9-11-9-9-9---------7-------7-7-7-7-9-7-7-7---------9-------|

D------------------9-9-9-9---9-9-9-----------------7-7-7-7---7-7-7-|

A------------------------------------------------------------------|

E------------------------------------------------------------------|

Chorus:

As verse

Breakdown:

G--------------------------------------------------------9-|

D---------7p5------------7p5------------7p5----5-5-7-7-9---|

A-5-5-7-7-----7--5-5-7-7-----7--5-5-7-7-----7--------------| x4

E----------------------------------------------------------|

Outro:

G--------------------------------|

D--------------------------------|

A-7-7---------------5-5----------| x 2

E----------7-7---------------5-5-|

Verse

Chorus

Breakdown

Verse

Chorus

Breakdown

Solo (as verse)

Chourus x2

Outro

That's the lot. Remember you can hear it at www.myspace.com/dreckon.Added by tabs-database.com and our distinguished partners

Get this song at:  amazon.com sheetmusicplus.com

Share your thoughts

0 Comments found