Misc Unsigned Bands

Misc Unsigned Bands - Rage Of Madness - Maybe A Rage Is Not A Bad Idea guitar tab

hi here's the next song of rage of madness

|-14-14-14-14-12-12-12-12-14-14-14-14-12-12-12-12-9-9-9-9-12-12-12-12-------|

|0--0--0--0--0--0--0--0--0--0--0--0--0--0--0--0--0-0-0-0-0--0--0--0---------|

|---------------------------------------------------------------------------|

|---------------------------------------------------------------------------|

|---------------------------------------------------------------------------|

|---------------------------------------------------------------------------|

|-5-5-5-5-7-7-7-7-7-7-7-7---------------------------------------------------|

|0-0-0-0-0-0-0-0-0-0-0-0----------------------------------------------------|

|---------------------------------------------------------------------------|

|---------------------------------------------------------------------------|

|---------------------------------------------------------------------------|

|---------------------------------------------------------------------------|

|---------------------------------------------------------------------------|

|---------------------------------------------------------------------------|

|---------------------------------------------------------------------------|

|---------------------------------------------------------------------------|

|---------------------------------------------------------------------------|

|6666666666444446668889996666666666666666666666444446668889996666666666-----|

|---------------------------------------------------------------------------|

|---------------------------------------------------------------------------|

|---------------------------------------------------------------------------|

|---------------------------------------------------------------------------|

|---------------------------------------------------------------------------|

|3333322222666666666644444666888999666666666666666666666644444666888999-----|

|---------------------------------------------------------------------------|

|---------------------------------------------------------------------------|

|---------------------------------------------------------------------------|

|---------------------------------------------------------------------------|

|---------------------------------------------------------------------------|

|6666666666-----------------------------------------------------------------|

3x :

|---------------------------------------------------------------------------|

|---------------------------------------------------------------------------|

|---------------------------------------------------------------------------|

|----------------------------------------------------1-----0----------------|

|-----4-5-7-8-7-5----------8-8------4-5-7-8-7-5--------3-2---1-0------------|

|0-00-------------0-00-0-0-6-6-0-00-------------0-00------------------------|

1x :

|---------------------------------------------------------------------------|

|---------------------------------------------------------------------------|

|---------------------------------------------------------------------------|

|---------------------------------------------------------------------------|

|-----4-5-7-8-7-5----------8-8------4-5-7-8-7-5-----------------------------|

|0-00-------------0-00-0-0-6-6-0-00-------------0-00-13-10-9-12-9-8---------|

4x :

|---------------------------------------------------------------------------|

|---------------------------------------------------------------------------|

|---------------------------------------------------------------------------|

|---------------------------------------------------------------------------|

|---------------------88-------------6655-----------------------------------|

|0000000000000000000006600000000000004433-----------------------------------|

4 x :

|---------------------------------------------------------------------------|

|---------------------------------------------------------------------------|

|---------------------------------------------------------------------------|

|---------------------------------------------------------------------------|

|---------------------------------------------------------------------------|

|6666666555-88-77-33--------------------------------------------------------|

3x :

|---------------------------------------------------------------------------|

|---------------------------------------------------------------------------|

|---------------------------------------------------------------------------|

|----------------------------------------------------1-----0----------------|

|-----4-5-7-8-7-5----------8-8------4-5-7-8-7-5--------3-2---1-0------------|

|0-00-------------0-00-0-0-6-6-0-00-------------0-00------------------------|

1x :

|---------------------------------------------------------------------------|

|---------------------------------------------------------------------------|

|---------------------------------------------------------------------------|

|---------------------------------------------------------------------------|

|-----4-5-7-8-7-5----------8-8------4-5-7-8-7-5-----------------------------|

|0-00-------------0-00-0-0-6-6-0-00-------------0-00-13-10-9-12-9-8---------|

3x :

|---------------------------------------------------------------------------|

|5--7---12b11b14b14b--------------15b12b------------------------------------|

|-------------------12b11b5b12b11b------15b12b11-9b7-5b2--------------------|

|---------------------------------------------------------------------------|

|---------------------------------------------------------------------------|

|---------------------------------------------------------------------------|

|---------------------------------------------------------------------------|

|---------------------------------------------------------------------------|

|---------------------------------------------------------------------------|

|-3-2-----------------------------------------------------------------------|

|-----3-2-------------------------------------------------------------------|

|---------3-2-0-------------------------------------------------------------|

3x :

|---------------------------------------------------------------------------|

|---------------------------------------------------------------------------|

|---------------------------------------------------------------------------|

|----------------------------------------------------1-----0----------------|

|-----4-5-7-8-7-5----------8-8------4-5-7-8-7-5--------3-2---1-0------------|

|0-00-------------0-00-0-0-6-6-0-00-------------0-00------------------------|

1x :

|---------------------------------------------------------------------------|

|---------------------------------------------------------------------------|

|---------------------------------------------------------------------------|

|---------------------------------------------------------------------------|

|-----4-5-7-8-7-5----------8-8------4-5-7-8-7-5-----------------------------|

|0-00-------------0-00-0-0-6-6-0-00-------------0-00-13-10-9-12-9-8---------|

4x :

|---------------------------------------------------------------------------|

|---------------------------------------------------------------------------|

|---------------------------------------------------------------------------|

|---------------------------------------------------------------------------|

|---------------------88-------------6655-----------------------------------|

|0000000000000000000006600000000000004433-----------------------------------|

4 x :

|---------------------------------------------------------------------------|

|---------------------------------------------------------------------------|

|---------------------------------------------------------------------------|

|---------------------------------------------------------------------------|

|---------------------------------------------------------------------------|

|6666666555-88-77-33--------------------------------------------------------|

3x :

|---------------------------------------------------------------------------|

|---------------------------------------------------------------------------|

|---------------------------------------------------------------------------|

|----------------------------------------------------1-----0----------------|

|-----4-5-7-8-7-5----------8-8------4-5-7-8-7-5--------3-2---1-0------------|

|0-00-------------0-00-0-0-6-6-0-00-------------0-00------------------------|

1x :

|---------------------------------------------------------------------------|

|---------------------------------------------------------------------------|

|---------------------------------------------------------------------------|

|---------------------------------------------------------------------------|

|-----4-5-7-8-7-5----------8-8------4-5-7-8-7-5-----------------------------|

|0-00-------------0-00-0-0-6-6-0-00-------------0-00-13-10-9-12-9-8--0------|

Added by tabs-database.com and our distinguished partners

Get this song at:  amazon.com sheetmusicplus.com

Share your thoughts

0 Comments found