Misc Unsigned Bands

Misc Unsigned Bands - Hourglass- ' Hanging Here Myself' guitar tab

Hello everyone. My name is Erin Brennan(my profile is on this

site, check it out, I guess) and this is the first song I've ever

written. The melody of the lyrics somewhat goes with the music.

This song has optional palm-muting.

Tuning: Drop D

Note: for the mutes(x), do quick up-down strokes

Intro(4x)(start off with clean dist. and slow at first, then

get gradually faster and louder with heavy dist.):

pm----------------------------------------------------------------------]

[-------------------------------------------------------------------

[-------------------------------------------------------------------

[-------------------------------------------------------------------

[-------------------------------------------------------------------

[-0-0--5-0-0-0--6-6-6-0-0-0--3--0-0--12-12-12/13-13-13-13-----------

[-0-0--0-0-0-0--0-0-0-0-0-0--0--0-0---0--0--0--0--0--0--0-----------

Verse(3x):

pm----------------------------------------------------------------------]

[-------------------------------------------------------------------

[-------------------------------------------------------------------

[-------------------------------------------------------------------

[-x-x-x-x-----0-7-----8-8-8-x-0-3-----3-3-3-3/5-5-5-------------------

[-x-x-x-x-0-0-0-7-0-0-8-8-8-x-0-3-0---3-3-3-3/5-5-5-------------------

[-x-x-x-x-0-0-0-7-0-0-8-8-8-x-0-3-0-0-3-3-3-3/5-5-5-------------------

Chorus(4x):

pm----------------------------------------------------------------------]

[-------------------------------------------------------------------

[-------------------------------------------------------------------

[-------------------------------------------------------------------

[-12-12-12-12/15-15-15-15--x-x-x-x-10-10-10-10/12-12-12-12-x-x-x-x--

[-12-12-12-12/15-15-15-15--x-x-x-x-10-10-10-10/12-12-12-12-x-x-x-x--

[-12-12-12-12/15-15-15-15--x-x-x-x-10-10-10-10/12-12-12-12-x-x-x-x--

(Intro. 2x)

Verse(3x):

pm----------------------------------------------------------------------]

[-------------------------------------------------------------------

[-------------------------------------------------------------------

[-------------------------------------------------------------------

[-x-x-x-x-----0-7-----8-8-8-x-0-3-----3-3-3-3/5-5-5-------------------

[-x-x-x-x-0-0-0-7-0-0-8-8-8-x-0-3-0---3-3-3-3/5-5-5-------------------

[-x-x-x-x-0-0-0-7-0-0-8-8-8-x-0-3-0-0-3-3-3-3/5-5-5-------------------

Chorus(4x):

pm----------------------------------------------------------------------]

[-------------------------------------------------------------------

[-------------------------------------------------------------------

[-------------------------------------------------------------------

[-12-12-12-12/15-15-15-15--x-x-x-x-10-10-10-10/12-12-12-12-x-x-x-x--

[-12-12-12-12/15-15-15-15--x-x-x-x-10-10-10-10/12-12-12-12-x-x-x-x--

[-12-12-12-12/15-15-15-15--x-x-x-x-10-10-10-10/12-12-12-12-x-x-x-x--

Bridge(2x)

pm----------------------------------------------------------------------]

[-------------------------------------------------------------------

[-------------------------------------------------------------------

[-------------------------------------------------------------------

[-5-5-5-5-5--3-3-3-3-3--1-1-1-1-1-3-3-3-3-3-------------------------

[-5-5-5-5-5--3-3-3-3-3--1-1-1-1-1-3-3-3-3-3-------------------------

[-5-5-5-5-5--3-3-3-3-3--1-1-1-1-1-3-3-3-3-3-------------------------

(Chorus 2x)

Verse 1:

Could it be I'm just frustrated?

Crawling with this venom that was

Put on me by you

Seeping through the years

We are divided into fears

Chorus:

You are so much farther away

But I'm hanging here myself

And I'm frozen on the wall

Asphyxiated by a mad world

Watch as I stumble in the dark

Pick me up before no one cares

Or leave me hanging on

Verse 2:

I thank you for your time

But for a moment I thought you were mine

There is only one thing you lost

Don't suppose I'll ever tell

Couldn't you find out on your own?

Chorus 2(follows same riff but with different lyrics):

I am so much farther away

But you are hanging here yourself

And you're frozen on the wall

Watch as you stumble past the ground

Walk on by, for no one cares

I'll leave you hanging here

Bridge:

What do you see inside your mind?

The worst could be over if you tried

To hell with knowing you

(play chorus 1, then chorus 2 to end)

Get this song at:  amazon.com sheetmusicplus.com

Share your thoughts

0 Comments found