Misc Unsigned Bands

Misc Unsigned Bands - This Side Down - In Mid-fall guitar tab

This Side Down

In Mid-Fall

Tabbed by RoBeRt(the fat scotish one)

This is an great song

Verse:

-------------------------------------------------------------|

-------------------------------------------------------------|

-------------------------------------------------------------|

-7------5-------------5555-5-5555-3--------------------------|

-7-8x's-5-8x's-repeat-5555-5-5555-3-8x's---------------------|x4

-6------4-------------3333-0-3333-0--------------------------|

.... ....

Chorus:

-------------------------------------------------------------|

-------------------------------------------------------------|

-------------------------------------------------------------|

-66666666-6-55555555-5---------------------------------------|

-66666666-6-55555555-5---------------------------------------|x4

-55555555-4-44444444-0---------------------------------------|

Lead:

-5-4-0-7-4-0-5-4-0-7-5/4-0-9-7-5-9-7-5-0-4-5-0-4-5-0-4-5-----|

-------------------------------------------------------------|

-------------------------------------------------------------|

-------------------------------------------------------------|

-------------------------------------------------------------|

-------------------------------------------------------------|

thats all you need to know

and please micheal dont kill me until you get your license to do so

and on that note license to kill

Get this song at:  amazon.com sheetmusicplus.com

Share your thoughts

0 Comments found