Misc Unsigned Bands

Misc Unsigned Bands - Suckerpunch - Snakes On A Plane Bass guitar tab

Standard tuning.

p= pause

Intro x8 or so and played kind of fast

G|---------------------------------|

D|---------------------------------|

A|-----------------5-5-5-5-5-5-5-5-|

E|-0-0-0-0-0-3-3-5-----------------|

Chorus x4 played faster than the intro

G|-----------------------------------------------------------------|

D|-----------------------------------------------------------------|

A|-------------------------------------------------5-5-5-5-5-5-5-5-|

E|-0-0-0-0-0-0-0-0-3-3-3-3-3-3-3-3-5-5-5-5-5-5-5-5-----------------|

Breakdown x3 played fast or hit each note when the guitar does

G|------------------------- ---------------|

D|------------------------- ---------------|

A|-7-7-7-7-6-6-6-6-5-5-3-2- or -7-p-6-p-5-3-2-|

E|------------------------- ---------------|

Then you say "It's time to open some windows!"

G|--------------|

D|--------------|

A|-7------------|

E|--------------|

Mute right after hitting the "E" when you end.Added by tabs-database.com and our distinguished partners

Get this song at:  amazon.com sheetmusicplus.com

Share your thoughts

0 Comments found