Misc Unsigned Bands

Misc Unsigned Bands - My Jaded Hero - Space Cakes Bass guitar tab

most of the song

E|-----------3-3--5-5--|

G|---------------------|

D|---------------------|

A|--5-5--2-2-----------|

bass solo

G|---7--------4-----------------------|

D|-----5-7------2-4----5--------7-----|

A|-5--------2------------3-5------5-7-| x4

E|-------------------3--------5-------|

end

G|-----------------|

D|-----------------|

A|--5-5--2-2-----5-|

E|-----------3-5---|

ok thats it guys see you at our gigs

X jay X the bass player.

webmaster at tabs-database.com.com

Added by tabs-database.com and our distinguished partners

Get this song at:  amazon.com sheetmusicplus.com

Share your thoughts

0 Comments found