Misc Unsigned Bands

Misc Unsigned Bands - Leeway - Product guitar tab

intro:

e|--------------------------------------------|

b|--------------------------------------------|

g|--------------------------------------------|

d|--------------------------------------------|

a|-6-6-6-6-5555-5--5--5-5-5555-5--5--5-5-5555-|

e|-5-5-5-5-6666-6--6--6-6-6666-6--6--6-6-6666-| repeat several times

pm pm pm

e|--------------------------------------------------------------|

b|--------------------------------------------------------------|

g|--------------------------------------------------------------|

d|--------------------------------------------------------------|

a|--9-6-4-6-6666-6--6--6-6-5555-9-6-4-6-6666-6--6--6-6-6--6-6-6-|

e|--7-4-5-5-5555-5--5--5-5-5555-7-4-5-5-5555-5--5--5-5-4--4-4-4-|

pm pm pm

e|--------------------------------------------------------------|

b|--------------------------------------------------------------|

g|--------------------------------------------------------------|

d|--------------------------------------------------------------|

a|--9-6-4-6-6666-6--6--6-6-5555-9-6-4-6-6666-6--6--6-6-4--4-4-4-|

e|--7-4-5-5-5555-5--5--5-5-5555-7-4-5-5-5555-5--5--5-5-2--2-2-2-|

pm pm pm

e|--------------------------------------------------------------|

b|--------------------------------------------------------------|

g|--------------------------------------------------------------|

d|--------------------------------------------------------------|

a|--9-6-4-6-6666-6--6--6-6-5555-9-6-4-6-6666-6--6--6-6-6--6-6-6-|

e|--7-4-5-5-5555-5--5--5-5-5555-7-4-5-5-5555-5--5--5-5-4--4-4-4-|

pm pm pm

e|--------------------------------------------------------------|

b|--------------------------------------------------------------|

g|--------------------------------------------------------------|

d|--------------------------------------------------------------|

a|--9-6-4-6-6666-6--6--6-6-5555-9-6-4-6-6666-6--6--6-6-4--4-4-4-|

e|--7-4-5-5-5555-5--5--5-5-5555-7-4-5-5-5555-5--5--5-5-2--2-2-2-|

pm pm pm

e|--------------------------------------------------------------|

b|--------------------------------------------------------------|

g|--------------------------------------------------------------|

d|--6--6-6--7--7-7--6--6-6--7--7-7--6--6-6--7--7-7--6--6-6------|

a|--4--4-4--4--4-4--4--4-4--4--4-4--4--4-4--4--4-4--4--4-4-7----|

e|---------------------------------------------------------5----|

e|--------------------------------------------------------------|

b|--------------------------------------------------------------|

g|--------------------------------------------------------------|

d|--------------------------------------------------------------|

a|--9-6-4-6-6666-6--6--6-6-5555-9-6-4-6-6666-6--6--6-6-6--6-6-6-|

e|--7-4-5-5-5555-5--5--5-5-5555-7-4-5-5-5555-5--5--5-5-4--4-4-4-|

pm pm pm

e|--------------------------------------------------------------|

b|--------------------------------------------------------------|

g|--------------------------------------------------------------|

d|--------------------------------------------------------------|

a|--9-6-4-6-6666-6--6--6-6-5555-9-6-4-6-6666-6--6--6-6-4--4-4-4-|

e|--7-4-5-5-5555-5--5--5-5-5555-7-4-5-5-5555-5--5--5-5-2--2-2-2-|

pm pm pm

e|--------------------------------------------------------------|

b|--------------------------------------------------------------|

g|--------------------------------------------------------------|

d|--------------------------------------------------------------|

a|--9-6-4-6-6666-6--6--6-6-5555-9-6-4-6-6666-6--6--6-6-6--6-6-6-|

e|--7-4-5-5-5555-5--5--5-5-5555-7-4-5-5-5555-5--5--5-5-4--4-4-4-|

pm pm pm

e|--------------------------------------------------------------|

b|--------------------------------------------------------------|

g|--------------------------------------------------------------|

d|--------------------------------------------------------------|

a|--9-6-4-6-6666-6--6--6-6-5555-9-6-4-6-6666-6--6--6-6-4--4-4-4-|

e|--7-4-5-5-5555-5--5--5-5-5555-7-4-5-5-5555-5--5--5-5-2--2-2-2-|

pm pm pm

e|-----------------------------------------------------------------|

b|-----------------------------------------------------------------|

g|-----------------------------------------------------------------|

d|--6--6-6--7--7-7--6--6-6--7--7-7--6--6-6--7--7-7--6--6-6--7--7-7-|

a|--4--4-4--4--4-4--4--4-4--4--4-4--4--4-4--4--4-4--4--4-4--4--4-4-|

e|-----------------------------------------------------------------|

e|-----0------0-----0--------0-------0-------0-------0-----------------|

b|-------0------0-----0--------0-------0-------0-------0---------------|

g|---------------------------------------------------------------------|

d|--6------7------6-----7--------6-------7-------6---------------------|

a|--4------4------4-----4--------4-------4-------4------7--------------|

e|------------------------------------------------------5--------------|

e|-------------------------------------------------------------------|

b|-------------------------------------------------------------------|

g|-------------------------------------------------------------------|

d|-------------------------------------------------------------------|

a|--9-6-4-6-6666-6--6--6-6-5555-9-6-4-6-6666-6--6--6-6-5--7-7-7------|

e|--7-4-5-5-5555-5--5--5-5-5555-7-4-5-5-5555-5--5--5-5-5--5-5-5------| X3

pm pm pm

e|--------------------------------------------------------------|

b|--------------------------------------------------------------|

g|--------------------------------------------------------------|

d|--------------------------------------------------------------|

a|--9-6-4-6-6666-6--6--6-6-5555-9-6-4-6-6666-6--6--6-6-4--4-4-4-|

e|--7-4-5-5-5555-5--5--5-5-5555-7-4-5-5-5555-5--5--5-5-2--2-2-2-|

pm pm pm

e|-----------------------------------------------------------------|

b|-----------------------------------------------------------------|

g|-----------------------------------------------------------------|

d|--6--6-6--7--7-7--6--6-6--7--7-7--6--6-6--7--7-7--6--6-6--7--7-7-|

a|--4--4-4--4--4-4--4--4-4--4--4-4--4--4-4--4--4-4--4--4-4--4--4-4-|

e|-----------------------------------------------------------------|

e|-----0------0-----0--------0-------0-------0-------0-----------------|

b|-------0------0-----0--------0-------0-------0-------0---------------|

g|---------------------------------------------------------------------|

d|--6------7------6-----7--------6-------7-------6---------------------|

a|--4------4------4-----4--------4-------4-------4------7--------------|

e|------------------------------------------------------5--------------|

solo:missing

outro:

e|--------------------------------------------|

b|--------------------------------------------|

g|--------------------------------------------|

d|--------------------------------------------|

a|-6-6-6-6-5555-5--5--5-5-5555-5--5--5-5-5555-|

e|-5-5-5-5-6666-6--6--6-6-6666-6--6--6-6-6666-| repeat several times

pm pm pmAdded by tabs-database.com and our distinguished partners

Get this song at:  amazon.com sheetmusicplus.com

Share your thoughts

0 Comments found