Misc Unsigned Bands

Misc Unsigned Bands - American Pen Pal - Hop Scotch A Knife Away guitar tab

Guitar 1

Intro

E|-------------------------------------------------------|

B|-------------------------------------------------------|

G|-------------------------------------------------------|

D|--2--2--2--2--2--2--2--2--2--2--2--2--2--2--2--2--2----|

A|-0--0--0--0--0--0--0--0--0--0--0--0--0--0--0--0--0-----|

D|4--0--2--0--0--4--0--2--0--0--4--0--2--0--0--4--2--0---|

Let ring.... X2

Intro (part 2)(x's on 4th fret)

E|------------------------------------------------------------------------|

B|------------------------------------------------------------------------|

G|------------------------------------------------------------------------|

D|-2/444-xxxxx-2222222/444-xxxxx-222222-0000-xxxxx-222222-0000-xxxxx-2-2--|

A|-2/444-xxxxx-2222222/444-xxxxx-222222-0000-xxxxx-222222-0000-xxxxx-2-2--|

D|-2/444-xxxxx-2222222/444-xxxxx-222222-0000-xxxxx-222222-0000-xxxxx-2-2--|

E|------------------------------------------------------------------------|

B|------------------------------------------------------------------------|

G|-4/666-------4444444/666-------444444-2222-------444444-2-2-2-2-4-------|

D|-2/444-xxxxx-2222222/444-xxxxx-222222-0000-xxxxx-222222-0-0-0-0-2-------|

A|-2/444-xxxxx-2222222/444-xxxxx-222222-0000-xxxxx-222222-0-0-0-0-2-------|

D|-2/444-xxxxx-2222222/444-xxxxx-222222-0000-xxxxx-222222-0-0-0-0-2-------|

Verse

E|------------------------------------------------------------------------|

B|------------------------------------------------------------------------|

G|------------------------------------------------------------------------|

D|-44444444444-222-44444444444-222-00000000000-222-00000000000-222--------|

A|-44444444444-222-44444444444-222-00000000000-222-00000000000-222--------|

D|-44444444444-222-44444444444-222-00000000000-222-00000000000-222--------|

pm............................................................

E|------------------------------------------------------------------------|

B|------------------------------------------------------------------------|

G|------------------------------------------------------------------------|

D|-44444444444-222-44444444444-222-00000000000-222-00000000000-222--------|

A|-44444444444-222-44444444444-222-00000000000-222-00000000000-222--------|

D|-44444444444-222-44444444444-222-00000000000-222-00000000000-222--------|

pm.....................................................

Chorus

E|----------------------------------------------------------------------|

B|----------------------------------------------------------------------|

G|-6666666666666666-9999999977777777-2222222222222222-4444444444444444--|

D|-4444444444444444-7777777777777777-0000000000000000-2222222222222222--|

A|-4444444444444444-7777777777777777-0000000000000000-2222222222222222--|

D|-4444444444444444—7777777777777777—0000000000000000-2222222222222222--| X2

(Bit from chrous to verse)

E|------------------------------------------------------------------------|

B|------------------------------------------------------------------------|

G|------------------------------------------------------------------------|

D|-2/444-xxxxx-2222222/444-xxxxx-222222-0000-xxxxx-222222-0000-xxxxx-2-2--|

A|-2/444-xxxxx-2222222/444-xxxxx-222222-0000-xxxxx-222222-0000-xxxxx-2-2--|

D|-2/444-xxxxx-2222222/444-xxxxx-222222-0000-xxxxx-222222-0000-xxxxx-2-2--|

Verse

E|------------------------------------------------------------------------|

B|------------------------------------------------------------------------|

G|------------------------------------------------------------------------|

D|-44444444444-222-44444444444-222-00000000000-222-00000000000-222--------|

A|-44444444444-222-44444444444-222-00000000000-222-00000000000-222--------|

D|-44444444444-222-44444444444-222-00000000000-222-00000000000-222--------|

pm............................................................

E|------------------------------------------------------------------------|

B|------------------------------------------------------------------------|

G|------------------------------------------------------------------------|

D|-44444444444-222-44444444444-777-00000000000-222-00000000000-222--------|

A|-44444444444-222-44444444444-777-00000000000-222-00000000000-222--------|

D|-44444444444-222-44444444444-777-00000000000-222-00000000000-222--------|

pm.....................................................

Chorus

E|----------------------------------------------------------------------|

B|----------------------------------------------------------------------|

G|-6666666666666666-9999999977777777-2222222222222222-4444444444444444--|

D|-4444444444444444-7777777777777777-0000000000000000-2222222222222222--|

A|-4444444444444444-7777777777777777-0000000000000000-2222222222222222--|

D|-4444444444444444—7777777777777777—0000000000000000-2222222222222222--| X2

Bridge (10 not 1 to 0!)

E|999777--------------999777--------------999777--------------|

B|------1010109999999-------1010109999999-------1010109999999-|

G|------------------------------------------------------------|

D|------------------------------------------------------------|

A|------------------------------------------------------------|

D|------------------------------------------------------------|

pm............................................................

E|-9-7--------------|

B|----10-9-9h10p9-7-|

G|------------------|

D|------------------|

A|------------------|

D|------------------|

let ring...

Chorus

E|----------------------------------------------------------------------|

B|----------------------------------------------------------------------|

G|-6666666666666666-9999999977777777-2222222222222222-4444444444444444--|

D|-4444444444444444-7777777777777777-0000000000000000-2222222222222222--|

A|-4444444444444444-7777777777777777-0000000000000000-2222222222222222--|

D|-4444444444444444—7777777777777777—0000000000000000-2222222222222222--| X4

E|----

B|----

G|-6--

D|-4--

A|-4--

D|-4--

(ends on)

Guitar 2

Intro

E|---------------------------------------|

B|---------------------------------------|

G|-----11--11h13h14-14p13p11p9-9h11------|

D|----------------------------------11p9-|

A|---------------------------------------|

D|---------------------------------------|

let ring...

E|-------------------------------------------------------------------------|

B|-10-10-10-9-9-9--------------------10-10-10-9-9-9-12-12-12-9-9-9-9h10p9--|

G|---------------11-11-11-9-9-9-9-9-9--------------------------------------|

D|-------------------------------------------------------------------------|

A|-------------------------------------------------------------------------|

D|-------------------------------------------------------------------------|

E|-------------------------------------------------------------------------|

B|-10-10-10-9-9-9--------------------10-10-10-9-9-9------------------------|

G|---------------11-11-11-9-9-9-9-9-9--------------11----------------------|

D|-------------------------------------------------------------------------|

A|-------------------------------------------------------------------------|

D|-------------------------------------------------------------------------|

let ring........................

Intro (part 2)

E|-------------------------------------------------------------------------|

B|-10-10-10-9-9-9--------------------10-10-10-9-9-9-12-12-12-9-9-9-9h10p9--|

G|---------------11-11-11-9-9-9-9-9-9--------------------------------------|

D|-------------------------------------------------------------------------|

A|-------------------------------------------------------------------------|

D|-------------------------------------------------------------------------|

E|-------------------------------------------------------------------------|

B|-10-10-10-9-9-9--------------------10-10-10-9-9-9-12---------------------|

G|---------------11-11-11-9-9-9-9-9-9--------------------------------------|

D|-------------------------------------------------------------------------|

A|-------------------------------------------------------------------------|

D|-------------------------------------------------------------------------|

Verse

E|-------------------------------------------------------------------------|

B|-10-10-10-9-9-9--------------------10-10-10-9-9-9------------------------|

G|---------------11-11-11-9-9-9-9-9-9--------------11-11-11-9-9-9-9-9-9----|

D|-------------------------------------------------------------------------|

A|-------------------------------------------------------------------------|

D|-------------------------------------------------------------------------|

E|-------------------------------------------------------------------------|

B|-10-10-10-9-9-9------------------10-10-10-9-9-9--------------------------|

G|---------------9-9-9-7-7-7-7-7-7---------------9-9-9-7-7-7-7-7-7---7-----|

D|--------------------------------------------------------------------7----|

A|-------------------------------------------------------------------------|

D|-------------------------------------------------------------------------|

harmonics..

E|-------------------------------------------------------------------------|

B|-10-10-10-9-9-9--------------------10-10-10-9-9-9------------------------|

G|---------------11-11-11-9-9-9-9-9-9--------------11-11-11-9-9-9-9-9-9----|

D|-------------------------------------------------------------------------|

A|-------------------------------------------------------------------------|

D|-------------------------------------------------------------------------|

E|-----------------------------------------------------------------------|

B|-10-10-10-9-9-9------------------10-10-10-9-9-9-12-12-12-10------------|

G|---------------9-9-9-7-7-7-7-7-7---------------------------------------|

D|-----------------------------------------------------------------------|

A|-----------------------------------------------------------------------|

D|-----------------------------------------------------------------------|

Chorus

E|--------------------------------------------------------------------------|

B|-10-10-10-9-9-9-12-10-10-10-9-9-9-12-10-10-10-9-9-9-12-10-10-10-9-9-9-12--|

G|--------------------------------------------------------------------------|

D|--------------------------------------------------------------------------|

A|--------------------------------------------------------------------------|

D|--------------------------------------------------------------------------|

E|----------------12----------------12----------------14----------------14--|

B|-10-10-10-9-9-9----10-10-10-9-9-9----10-10-10-9-9-9----10-10-10-9-9-9-----|

G|--------------------------------------------------------------------------|

D|--------------------------------------------------------------------------|

A|--------------------------------------------------------------------------|

D|--------------------------------------------------------------------------|

X2

(Bit that leads to verse)

E|-------------------------------------------------------------------------|

B|-10-10-10-9-9-9--------------------10-10-10-9-9-9-12-12-12-9-9-9-9h10p9--|

G|---------------11-11-11-9-9-9-9-9-9--------------------------------------|

D|-------------------------------------------------------------------------|

A|-------------------------------------------------------------------------|

D|-------------------------------------------------------------------------|

E|-------------------------------------------------------------------------|

B|-10-10-10-9-9-9--------------------10-10-10-9-9-9-12---------------------|

G|---------------11-11-11-9-9-9-9-9-9--------------------------------------|

D|-------------------------------------------------------------------------|

A|-------------------------------------------------------------------------|

D|-------------------------------------------------------------------------|

Verse

E|-------------------------------------------------------------------------|

B|-10-10-10-9-9-9--------------------10-10-10-9-9-9------------------------|

G|---------------11-11-11-9-9-9-9-9-9--------------11-11-11-9-9-9-9-9-9----|

D|-------------------------------------------------------------------------|

A|-------------------------------------------------------------------------|

D|-------------------------------------------------------------------------|

E|-------------------------------------------------------------------------|

B|-10-10-10-9-9-9------------------10-10-10-9-9-9--------------------------|

G|---------------9-9-9-7-7-7-7-7-7---------------9-9-9-7-7-7-7-7-7---7-----|

D|--------------------------------------------------------------------7----|

A|-------------------------------------------------------------------------|

D|-------------------------------------------------------------------------|

harmonics..

E|-------------------------------------------------------------------------|

B|-10-10-10-9-9-9--------------------10-10-10-9-9-9------------------------|

G|---------------11-11-11-9-9-9-9-9-9--------------11-11-11-9-9-9-9-9-9----|

D|-------------------------------------------------------------------------|

A|-------------------------------------------------------------------------|

D|-------------------------------------------------------------------------|

E|-----------------------------------------------------------------------|

B|-10-10-10-9-9-9------------------10-10-10-9-9-9-12-12-12-10------------|

G|---------------9-9-9-7-7-7-7-7-7---------------------------------------|

D|-----------------------------------------------------------------------|

A|-----------------------------------------------------------------------|

D|-----------------------------------------------------------------------|

Chorus

E|--------------------------------------------------------------------------|

B|-10-10-10-9-9-9-12-10-10-10-9-9-9-12-10-10-10-9-9-9-12-10-10-10-9-9-9-12--|

G|--------------------------------------------------------------------------|

D|--------------------------------------------------------------------------|

A|--------------------------------------------------------------------------|

D|--------------------------------------------------------------------------|

E|----------------12----------------12----------------14----------------14--|

B|-10-10-10-9-9-9----10-10-10-9-9-9----10-10-10-9-9-9----10-10-10-9-9-9-----|

G|--------------------------------------------------------------------------|

D|--------------------------------------------------------------------------|

A|--------------------------------------------------------------------------|

D|--------------------------------------------------------------------------|

X2

Bridge

E|-------------------------------------------------------------------------|

B|-10-10-10-9-9-9--------------------10-10-10-9-9-9------------------------|

G|---------------11-11-11-9-9-9-9-9-9--------------11-11-11-9-9-9-9-9-9----|

D|-------------------------------------------------------------------------|

A|-------------------------------------------------------------------------|

D|-------------------------------------------------------------------------|

E|----------------------------------------------------|

B|-10-10-10-9-9-9--------------------10-9-------------|

G|---------------11-11-11-9-9-9-9-9-9----11-9-9p11h9--|

D|----------------------------------------------------|

A|----------------------------------------------------|

D|----------------------------------------------------|

Chorus

E|--------------------------------------------------------------------------|

B|-10-10-10-9-9-9-12-10-10-10-9-9-9-12-10-10-10-9-9-9-12-10-10-10-9-9-9-12--|

G|--------------------------------------------------------------------------|

D|--------------------------------------------------------------------------|

A|--------------------------------------------------------------------------|

D|--------------------------------------------------------------------------|

E|----------------12----------------12----------------14----------------14--|

B|-10-10-10-9-9-9----10-10-10-9-9-9----10-10-10-9-9-9----10-10-10-9-9-9-----|

G|--------------------------------------------------------------------------|

D|--------------------------------------------------------------------------|

A|--------------------------------------------------------------------------|

D|--------------------------------------------------------------------------|

X4

Ends on

E|----

B|-10-

G|----

D|----

A|----

D|----Added by tabs-database.com and our distinguished partners

Get this song at:  amazon.com sheetmusicplus.com

Share your thoughts

0 Comments found