Misc Unsigned Bands

Misc Unsigned Bands - Zeest - Sutta guitar tab

e|------3---|-----2---|-----0---|-------0---|

B|--------3-|-------3-|-------0-|---------1-|

G|----------|---2-----|---------|-----------|

D|---5------|-0-------|---2-----|---2-------|

A|-5--------|---------|-2-------|-3---------|

E|----------|---------|---------|-----------|

e|------3---|-----2---|-----0---|-----0---|-----|

B|--------3-|-------3-|-------0-|-------1-|-----|

G|----------|---2-----|---2-----|---------|-----|

D|---5------|-0-------|-2-------|--2------|-----|

A|-5--------|---------|---------|-3-------|-----|

E|----------|---------|---------|---------|-----|

e|------3---|-----2---|-----0---|-------0---|

B|--------3-|-------3-|-------0-|---------1-|

G|----------|---2-----|---------|-----------|

D|---5------|-0-------|---2-----|---2-------|

A|-5--------|---------|-2-------|-3---------|

E|----------|---------|---------|-----------|

e|------3---|-----2---|-----0---|-----0---|-----|

B|--------3-|-------3-|-------0-|-------1-|-----|

G|----------|---2-----|---2-----|---------|-----|

D|---5------|-0-------|-2-------|--2------|-----|

A|-5--------|---------|---------|-3-------|-----|

E|----------|---------|---------|---------|-----|

e|-3--3---X-XX-X---2-2-22---0-0-00--|

B|-3--3---X-XX-X---3-3-33---1-1-11--|

G|-4--4---X-XX-X---2-2-22---0-0-00--|

D|-5--5---X-XX-X---0-0-00---2-2-22--|

A|-5--5---X-XX-X---X-X-XX---3-3-33--|

E|-3--3---X-XX-X---X-X-XX---0-0-00--|

e|-3--3---X-XX-X---2-2-22---0-0-00--|

B|-3--3---X-XX-X---3-3-33---1-1-11--|

G|-4--4---X-XX-X---2-2-22---0-0-00--|

D|-5--5---X-XX-X---0-0-00---2-2-22--| Note-The Muted Striking Is More Than

A|-5--5---X-XX-X---X-X-XX---3-3-33--| What Is Shown

E|-3--3---X-XX-X---X-X-XX---0-0-00--|

e|-3--3----2-22-22---3—-3----0-0-00--|

B|-3--3----3-33-33---3—-3----1-1-11--|

G|-4--4----2-22-22---2—-2----0-0-00--|

D|-5--5----0-00-00---0—-0----2-2-22--|

A|-5--5----X-XX-XX---0—-0----3-3-33--|

E|-3--3----X-XX-XX---0—-0----0-0-00--|

e|-3--3----2-22-22---3—-3----0-0-00--|

B|-3--3----3-33-33---3—-3----1-1-11--|

G|-4--4----2-22-22---2—-2----0-0-00--|

D|-5--5----0-00-00---0—-0----2-2-22--|

A|-5--5----X-XX-XX---0—-0----3-3-33--|

E|-3--3----X-XX-XX---0—-0----0-0-00--|

e|-3--3---X-XX-X---2-2-22---0-0-00--|

B|-3--3---X-XX-X---3-3-33---1-1-11--|

G|-4--4---X-XX-X---2-2-22---0-0-00--|

D|-5--5---X-XX-X---0-0-00---2-2-22--|

A|-5--5---X-XX-X---X-X-XX---3-3-33--|

E|-3--3---X-XX-X---X-X-XX---0-0-00--|

e|-3--3---X-XX-X---2-2-22---0-0-00--|

B|-3--3---X-XX-X---3-3-33---1-1-11--|

G|-4--4---X-XX-X---2-2-22---0-0-00--|

D|-5--5---X-XX-X---0-0-00---2-2-22--|

A|-5--5---X-XX-X---X-X-XX---3-3-33--|

E|-3--3---X-XX-X---X-X-XX---0-0-00--|

Doston mein baitha mein sutta pee raha

Abba ne mujhe sutta peete dekh liya

Ghar jab mein pahuncha mujhe danda ho gaya

Behenchhod sutta sutta na mila (4x or 5x)

e|-3--3---X-XX-X---2-2-22---0-0-00--|

B|-3--3---X-XX-X---3-3-33---1-1-11--|

G|-4--4---X-XX-X---2-2-22---0-0-00--|

D|-5--5---X-XX-X---0-0-00---2-2-22--|

A|-5--5---X-XX-X---X-X-XX---3-3-33--|

E|-3--3---X-XX-X---X-X-XX---0-0-00--|

e|-3--3---X-XX-X---2-2-22---0-0-00--|

B|-3--3---X-XX-X---3-3-33---1-1-11--|

G|-4--4---X-XX-X---2-2-22---0-0-00--|

D|-5--5---X-XX-X---0-0-00---2-2-22--|

A|-5--5---X-XX-X---X-X-XX---3-3-33--|

E|-3--3---X-XX-X---X-X-XX---0-0-00--|

College mein gaya mujhe pyar ho gaya

Usne ne bhi mujhse mera sutta cheen liya

Sarkon pe ghooma mein tanha reh gaya

Behenchhod sutta sutta na mila (4x or 5x)

e|-3--3----2--2----0----00-00-00-|

B|-3--3----3--3----1----11-11-11-|

G|-4--4----2--2----0----00-00-00-|

D|-5--5----0--0----2----22-22-22-|

A|-5--5----X--X----3----33-33-33-|

E|-3--3----X--X----0----00-00-00-|

e|-3--3----2--2----0----00-00-00-|

B|-3--3----3--3----1----11-11-11-|

G|-4--4----2--2----0----00-00-00-|

D|-5--5----0--0----2----22-22-22-|

A|-5--5----X--X----3----33-33-33-|

E|-3--3----X--X----0----00-00-00-|

Shaadi hui mein husband ban gaya

Raat bhar thoka mein thak ke gir gaya

Khushiyon ki khatir mera sutta cheen gayaaaaaaaaaa

Behenchhod sutta

Solo(solo starts with the singer's voice in the background)

e-5b--5-5--3-3-------3/5-3-5----------|

B---------------3-3-5-----------------|

G-------------------------------------|

D-------------------------------------|

A-------------------------------------|

E-------------------------------------|

e-5b--5-5--3-3-------3/5-3-5----------|

B---------------3-3-5-----------------|

G-------------------------------------|

D-------------------------------------|

A-------------------------------------|

E-------------------------------------|

e-8-8---7-7--5-3-3-----3/5-3-5---------|

B-----------------3-3-5----------------|

G--------------------------------------|

D--------------------------------------|

A--------------------------------------|

E--------------------------------------|

e-8-8---7-7--5-3-3-----3/5-3-5---------|

B-----------------3-3-5----------------|

G--------------------------------------|

D--------------------------------------|

A--------------------------------------|

E--------------------------------------|

e-5b--5-5--3-3-------3/5-3-5----------|

B---------------3-3-5-----------------|

G-------------------------------------|

D-------------------------------------|

A-------------------------------------|

E-------------------------------------|

e-5b*--5-5--3-3-------3/5-3-5----------|

B---------------3-3-5------------------|

G--------------------------------------|

D--------------------------------------| *The bend this time goes a little

A--------------------------------------| deeper this time.

E--------------------------------------|

e---------------------3-3-3--4-4-4--6-6-6--8-8-8--|

B-3-3-3--4-4-4--6-6-6-----------------------------|

G-------------------------------------------------|

D-------------------------------------------------|

A-------------------------------------------------|

E-------------------------------------------------|

e--9-9-9--11-11-11--13-13-13--15-15-15--16-16-16-16-16-16-|

B---------------------------------------------------------|

G---------------------------------------------------------|

D---------------------------------------------------------|

A---------------------------------------------------------|

E---------------------------------------------------------|

Behenchhod sutta sutta na mila(4x)

e-3--------3333-333-3333-3333-333-3333--------------------|

B-3--------3333-333-3333-3333-333-3333--------------------|

G-4--------2222-222-2222-2222-222-2222--------------------|

D-5-------------------------------------------------------|

A-5-------------------------------------------------------|

E-3-------------------------------------------------------|

e|-3--3---X-XX-X---2-2-22---0-0-00--|

B|-3--3---X-XX-X---3-3-33---1-1-11--|

G|-4--4---X-XX-X---2-2-22---0-0-00--|

D|-5--5---X-XX-X---0-0-00---2-2-22--|

A|-5--5---X-XX-X---X-X-XX---3-3-33--|

E|-3--3---X-XX-X---X-X-XX---0-0-00--|

e|-3--3---X-XX-X---2-2-22---0-0-00--|

B|-3--3---X-XX-X---3-3-33---1-1-11--|

G|-4--4---X-XX-X---2-2-22---0-0-00--|

D|-5--5---X-XX-X---0-0-00---2-2-22--|

A|-5--5---X-XX-X---X-X-XX---3-3-33--|

E|-3--3---X-XX-X---X-X-XX---0-0-00--|

Behen chhod, Maa Chhod, Behen chhod, Maa chhod, Behen chhod, Maa chhod (4x)

Na nana nana nana na nana nanaaaaa

Na nana nana nana na nana nanaaaaa

Na nana nana nana na nana nanaaaaaaaaaaaaaaa!!!!!!!!!!!!!!!!!!!!!!!!Added by tabs-database.com and our distinguished partners

Get this song at:  amazon.com sheetmusicplus.com

Share your thoughts

0 Comments found