Misc Unsigned Bands

Misc Unsigned Bands - 10 Things - Jam 1 guitar tab

-------------------------------------------------------------------------------

Jam 1 - 10 Things

-------------------------------------------------------------------------------

Tabbed by:Rob Church

Email:webmaster at tabs-database.com.com

The official band website is www.10things.4mg.com

Tuning:EADGBe

^:down strum

|:up strum

^ ^ ^ | ^ | | ^ (same strum pattern for the whole song)

e|-0--------0-0-0-0--0--------0-0-0-0--0--------0-0-0-0--0----------0-0--0--0------------------|

B|-0----0-0---0-0-0--0----0-0---0-0-0--0----0-0---0-0-0--0------0-0---0--0--0------------------|

G|-1--1-------1-1-1--8--8-------8-8-8--6--6-------6-6-6--11--11-------11-11-11-----------------|

D|-2----------2-2-2--9----------9-9-9--7----------7-7-7--12-----------12-12-12-----------------|

A|-2----------2-2-2--9----------9-9-9--7----------7-7-7--12-----------12-12-12-----------------|

E|-0----------0-0-0--0----------0-0-0--0----------0-0-0--0------------0--0--0------------------|

e|-0--------0-0-0-0--0----------0-0--0--0---0--------0-0-0-0--0--------0-0-0-0-----------------|

B|-0----0-0---0-0-0--0------0-0---0--0--0---0----0-0---0-0-0--0----0-0---0-0-0-----------------|

G|-8--8-------8-8-8--11--11-------11-11-11--6--6-------6-6-6--1--1-------2-2-2-----------------|

D|-9----------9-9-9--12-----------12-12-12--7----------7-7-7--2----------1-1-1-----------------|

A|-9----------9-9-9--12-----------12-12-12--7----------7-7-7--2----------1-1-1-----------------|

E|-0----------0-0-0--0------------0--0--0---0----------0-0-0--0----------0-0-0-----------------|

repeat as many times as you want to.

Added by tabs-database.com and our distinguished partners

Get this song at:  amazon.com sheetmusicplus.com

Share your thoughts

0 Comments found