Misc Unsigned Bands

Misc Unsigned Bands - 6-9 Monster - Taste Like Bass guitar tab

----------------------------------------------------------------------

Taste Like - 6-9 Monster

----------------------------------------------------------------------

Tabbed By : UltimateNirvana

e-mail: webmaster at tabs-database.com.com

Tuning: Standard

G|-------------------------------------------------------------------|

D|-------------------------------------------------------------------|

A|-------------------------------------------------------------------|

E|-1-1-1-1-1-1-1-1-1-1-1-1-1-1-1-1-0-0-0-0-0-0-0-0-0-0-0-0-0-0-0-0---|

G|-------------------------------------------------------------------|

D|-------------------------------------------------------------------|

A|-------------------------------------------------------------------|

E|-1-1-1-1-1-1-1-1--3--1--0-0-0-0-0-0-0-0-0-0-0-0-0-0-0-0------------|

G|-------------------------------------------------------------------|

D|-------------------------------------------------------------------|

A|-------------------------------------------------------------------|

E|-1-1-1-1-1-1-1-1-1-1-1-1-1-1-1-1-0-0-0-0-0-0-0-0-0-0-0-0-0-0-0-0---|

G|-------------------------------------------------------------------|

D|-------------------------------------------------------------------|

A|-------------------------------------------------------------------|

E|-1-1-1-1-1-1-1-1--3--1--0-0-0-0-0-0-0-0-0-0-0-0-0-0-0-0------------|

G|-------------------------------------------------------------------|

D|-5p7-7-7-5p7-7-7--7--3--5--3--5p7-7-7-5p7-7-7--7--3--5--3----------|

A|-------------------------------------------------------------------|

E|-------------------------------------------------------------------|

G|-------------------------------------------------------------------|

D|-------------------------------------------------------------------|

A|-------------------------------------------------------------------|

E|-5-5-5-5-1-1-3-3--5-5-5-5-3-3-1-1-5-5-5-5-1-1-3-3--5-5-5-5-3-3-1-1-|

G|-------------------------------------------------------------------|

D|---5-5hp7--3p----5-5hp7--3p-----5-5hp7--3p-------------------------|

A|-------------------------------------------------------------------|

E|-5------------5-------------5---------------5-5-5-5-3-3-3-3--------|

G|-------------------------------------------------------------------|

D|-------------------------------------------------------------------|

A|-------------------------------------------------------------------|

E|-5-5-5-5-1-1-3-3--5-5-5-5-3-3-1-1-5-5-5-5-1-1-3-3--5-5-5-5-3-3-1-1-|

G|-------------------------------------------------------------------|

D|---5-5hp7--3p----5-5hp7--3p-----5-5hp7--3p-------------------------|

A|-------------------------------------------------------------------|

E|-5------------5-------------5---------------5-5-5-5-3-3-3-3--------|

G|-------------------------------------------------------------------|

D|-------------------------------------------------------------------|

A|-------------------------------------------------------------------|

E|-5-5-5-5-1-1-3-3--5-5-5-5-3-3-1-1-5-5-5-5-1-1-3-3--5-5-5-5-3-3-1-1-|

G|-------------------------------------------------------------------|

D|---5-5hp7--3p------------------------------------------------------|

A|-------------------------------------------------------------------|

E|-5-----------------------------------------------------------------|

| / slide up

| \\ slide down

| h hammer-on

| p pull-off

| ~ vibrato

| + harmonic

| x Mute note

======================================================================

Added by tabs-database.com and our distinguished partners

Get this song at:  amazon.com sheetmusicplus.com

Share your thoughts

0 Comments found