Misc Unsigned Bands

Misc Unsigned Bands - The Loose Screws - Scalded Dog Bass guitar tab

-------------------------------------------------------------------------------

Scalded Dog – The Loose Screws

-------------------------------------------------------------------------------

The Bass tab for my band's song. Have Fun!

Tabbed By : Nobody Special

e-mail: N/A

Tuning: Standard

Riff 1

G|---------------------------------------------5-----------------------------|

D|-7-7-7p5-----7-7-7p5-----7-7-7p5---------5h7-------------------------------|

A|---------7-----------7-----------7---5h7-----------------------------------|

E|---------------------------------------------------------------------------|

Riff 2

G|---------------------------------------------------------------------------|

D|-7-7-7p5-----7-7-7p5-----7-7-7p5-------------------------------------------|

A|---------7-----------7-----------7---5h7-----------------------------------|

E|-----------------------------------------8-5-------------------------------|

Riff 3

G|---------------------------------------------------------------17----------|

D|-19-19-19p17-----19-19-19p17------19-19-19p17------------17h19-------------|

A|-------------19--------------19---------------19---17h19-------------------|

E|---------------------------------------------------------------------------|

Riff 4

G|---------------------------------------------------------------------------|

D|-19-19-19p17-----19-19-19p17------19-19-19p17------------------------------|

A|-------------19--------------19---------------19---17h19-------------------|

E|---------------------------------------------------------20-17-------------|

End Riff

G|---------------------------------------------------------------------------|

D|-7-7-7p5-----7-7-7p5-----7-7-7p5-------------------------------------------|

A|---------7-----------7-----------7—-7p5------------------------------------|

E|----------------------------------------8-5b/12\\0--------------------------|

For the solo alt. between Riff 1 and Riff 2 for the low parts, and Riff 3 and Riff 4 for the high parts.

| / slide up

| \\ slide down

| h hammer-on

| p pull-off

| ~ vibrato

| + harmonic

| x Mute note

Added by tabs-database.com and our distinguished partners

Get this song at:  amazon.com sheetmusicplus.com

Share your thoughts

0 Comments found