Misc Unsigned Bands

Misc Unsigned Bands - Behind The Sirens - Intro Ducishon Bass guitar tab

Behind The Sirens &

Bloody Fingers Inc.

Copyright 2006

Contact:webmaster at tabs-database.com.com

"Intro Ducishon"

This is one of my band's songs, I hope you enjoy.

|----------------------------------------------------------------------|

|----------------------------------------------------------------------|

|----------------------------------------------------------------------|

|----------------------------------------------------------------------|

|-------7-7-7-7-7-7-6-6-4-4-4-4-4-4-2-2-0-0-0-0-0-0-0-0-2-2-2-2-2-2-2-2|

|-----------------------------|----------------------------------------|

|-----------------------------|----------------------------------------|

|--9-------6-------11-------8-|----------------------------------------|

|-9-------6-------11-------8--|----------------------------------------|

|7---7-6-4---4-4-9----9-8-6---|7-7-7-7-7-7-6-6-4-4-4-4-4-4-2-2-0-0-0-0-|

|----------------------------------------------------------------------|

|----------------------------------------------------------------------|

|----------------------------------------------------------------------|

|----------------------------------------------------------------------|

|0-0-0-0-2-2-2-2-2-2-2-2-7-7-7-7-7-7-6-6-4-4-4-4-4-4-2-2-0-0-0-0-0-0-0-|

|-----------------|-----------------------------|----------------------|

|-----------------|-----------------------------|----------------------|

|-----------------|--9-------6-------11-------8-|----------------------|

|-----------------|-9-------6-------11-------8--|----------------------|

|0-2-2-2-2-2-2-2-2|7---7-6-4---4-4-9----9-8-6---|7-7-7-7-7-7-6-6-4-4-4-|

|----------------------------------------------------------------------|

|----------------------------------------------------------------------|

|----------------------------------------------------------------------|

|----------------------------------------------------------------------|

|4-4-4-2-2-0-0-0-0-0-0-0-7-7-7-7-7-7-6-6-4-4-4-4-4-4-2-2-0-0-0-0-0-0-0-|

|----------------------|

|----------------------|

|----------------------|

|----------------------|

|0-2-2-2-2-2-2-2-2-7\\0-|Added by tabs-database.com and our distinguished partners

Get this song at:  amazon.com sheetmusicplus.com

Share your thoughts

0 Comments found