Misc Unsigned Bands

Misc Unsigned Bands - Madflow - Sarong Banggi guitar tab

elow guys! 1st tab ko 2...

sana tama..nilagyan ko na

ng chords un solo pra masmpadali ang pgkuha nyo ng timing...

indi maxadong accurate ung solo nyan..pakitry nyo n lng

pakirate din poh!thnx

txt nyo n lng ako kng my question >> 09155976013 (globe lng ah!)

add nyo ko sa frndster>> webmaster at tabs-database.com.com

Intro

Am E Am

e-----------------------------------------|

B------------------10-13p12-10-9--12-10---|

G-----9-9h10-9--9-------------------------|

D--12-------------------------------------|

A-----------------------------------------|

E-----------------------------------------|

solo

Am Dm E Am

e-----------------------------------------------------------------|

B----13---------13---------12------------------------12-13-12-10--|

G------14---------14---------14-13--14----------13-14-------------|

D--14----14---16----16---14-----------14---14-16------------------|

A-----------------------------------------------------------------|

E-----------------------------------------------------------------|

Am Dm Am E Am

e---------------------------------------------------------------|

B----13----------------------------------10-13p12-10-9--12-10---|

G------14------14-12-10------9-9h10-9--9------------------------|

D--14----14--12-----------12------------------------------------|

A---------------------------------------------------------------|

E---------------------------------------------------------------|

Am Dm Dm Am

e-----------------121212121212-12-10-9-10-----------------------------------------------------|

B------------12-13-----------------------------------12-13-13s15-151515151515-15-13-12-12h13--|

G-------13-14-----------------------------------13-14-----------------------------------------|

D--14-15-----------------------------------14-15----------------------------------------------|

A---------------------------------------------------------------------------------------------|

E---------------------------------------------------------------------------------------------|

Am Am Dm Am E Am

e-----------------121212121212-12-17-15-13--13-11--------------------------------|

B------------12-13-------------------------------15-13--16-15-13-12--15-13-12-10-|

G-------13-14--------------------------------------------------------------------|

D--14-15-------------------------------------------------------------------------|

A--------------------------------------------------------------------------------|

E--------------------------------------------------------------------------------|

Am Dm

sarong banggi, sa igdaan

E Am (palm mute)

nakadangog ako, nin huni nin sarong gamgam...

Am Dm

sa lubha ko, katurogan

Am E Am (palm mute)

Bako kundi simong boses iyo palan...

Am Dm

dagos ako bangon si sakuyang mata iminuklat..

Dm Am

kadtong kadikluman ako nangalagkalag

Am Dm

si sakong pahiling pasiging sa itaas

Am E Am (palm mute)

simong lawod nahiling kong maliwanag...

repeat solo

then kakanta ulit

Am(strum once)

simong lawod

E(strum once)

nahiling kong

Am

maliwanag...

Added by tabs-database.com and our distinguished partners

Get this song at:  amazon.com sheetmusicplus.com

Share your thoughts

0 Comments found