Misc Unsigned Bands

Misc Unsigned Bands - Frisky Cats - A Hard Flip Is When You Board guitar tab

this is my band it is cool, i think youll like it we have been a band for ten

years and we have been taking lessons for 12 so just try to play our song.

where a new band on ultimate guitar tab achieve but we are still sweet.

intro:

e------1---------3----6-----1--2--3---8-7-11----------

b-----------5-----------------------------------------

g-----------------------------------------------------

d-----------------------------------------------------

a-----------------------------------------------------

e-----------------------------------------------------

lead guitar:(play this through out whole song)

e---------------------------

b---------------------------

g---------------------------

d---------------------------

a------5---3---------53-----

e--2----------5---2------3--

solo guitar: (plays this whole song)

e-------------------------------------------

b-------------------------------------------

g-------------------------------------------

d-------------------------------------------

a--------------77777----777-----------------

e--8888888---------88-------88888888--------

hope you like this song it is pretty dificult but youll get it,

check our site www.theswitchx.com

Get this song at:  amazon.com sheetmusicplus.com

Share your thoughts

0 Comments found