Misc Unsigned Bands

Misc Unsigned Bands - Murder Rape - Wonders Of Shadows guitar tab

Murder Rape

Wonders of Shadows

...And Evil Returns

Tabbed By Kevin Cruz

Murder Rape is an Underground Balck metal Band

Standard Tunning

E:-------------------------------------------------------------------------|

B:-------------------------------------------------------------------------|

G:-------------------------------------------------------------------------|

D:-------------------------------------------------------------------------|

A:-2-2--8-7-5-------3-3--10-8-7--------2-2--8-7-5-------3-3--10-8-7--------|

E:-0-0--------8-7-5-1-1---------10-8-7-0-0--------8-7-5-1-1---------10-8-7-|

E:-------------------------------------------------------------------------|

B:-------------------------------------------------------------------------|

G:-------------------------------------------------------------------------|

D:-------------------------------------------------------------------------|

A:-2-2--8-7-5-------3-3--10-8-7--------2-2--8-7-5-------3-3--10-8-7--------|

E:-0-0--------8-7-5-1-1---------10-8-7-0-0--------8-7-5-1-1---------10-8-7-|

Get this song at:  amazon.com sheetmusicplus.com

Share your thoughts

0 Comments found