Misc Unsigned Bands

Misc Unsigned Bands - Lithium - Therapy guitar tab

Therapy

` Ring

~~ Bend

repeat this 3 times, the 2 time, turn the volume down

E|-----------------------------------------

B|-----------------------------------------

G|-----------------------------------------

D|-----------------------------------------

A|---7-5---7``----------7-5---7~~----7-----

E|-0----------------0----------------------

/(X3)

E|----------------------------------------- /

B|----------------------------------------- /

G|----------------------------------------- /

D|----------------------------------------- /

A|---7-5---7``----------7-5---7~~----5----- /

E|-0----------------0----------------------/

E|-----------------------------------------

B|-----------------------------------------

G|-----------------------------------------

D|---7-5---7``----------7-5---7~~----7-----

A|-0----------------0----------------------

E|-----------------------------------------

/(X2)

E|----------------------------------------- /

B|----------------------------------------- /

G|----------------------------------------- /

D|---7-5---7``----------7-5---7~~----5----- /

A|-0----------------0---------------------- /

E|-----------------------------------------/

Get this song at:  amazon.com sheetmusicplus.com

Share your thoughts

0 Comments found