Misc Unsigned Bands

Misc Unsigned Bands - Quickdraw - Security Bass guitar tab

security

Intro

---------------------------------------------|

---------------------------------------------|X3

----------------2222--66--777----------------|

--0000--44--555------------------------------|

Then

---------------------------------------------|

---------------------------------------------|

--6h777--6h777--6h777--6--7--7---------------|

---------------------------------------------|

verse

---------------------------------------------|

-----6-7/9-7-6------7/6----------------------|

--7--------------79-----7/9--7---------------|

---------------9-----------------------------|

----------8h999--8h999------------------------|

----6-7/9-------------------------------------|

--7-------------------------------------------|

----------------------------------------------|

chorus

------9--8--6----------8--6---------------------|

----6----------9----6-------9-------------------|

--7---------------9-----------------------------|

------------------------------------------------|

------9--8--6-----8h999-8h999-------------------|

----6----------9--------------------------------|

--7---------------------------------------------|

------------------------------------------------|

-intro

-then

-verse

-chorus

bridge

---------------------------------------------|

---------------------------------------------|

-----5---------------------------------------|X2

--7-----777--5--7----------------------------|

---------------------------------------------|

---------------------------------------------|

-----5-----------6h777--9--7--6--------------|

--7-----777--5-7-----------------------------|

repeat twice

then play

----------------------------------------------------|

----------------------------------------------------|

--7----------------7----------------7---------------|

-----7--999--5--7----7--999---5--7----7--999--5--7--|

---------------------------------------------|

---------------------------------------------|

---6h777-6h777--6h777--9--7--6---------------|

---------------------------------------------|

chorus

outro

----------------------------------------------|

----------------------------------------------|

----------------------------------------------|X3

--0000---4-5555-------------------------------|

---------------------------------------------|

---------------------------------------------|

--2222--6--9999------------------------------|

---------------------------------------------|

play intro 3 or 4 times

then play

--------------------------------------------------------------------|

--------------------------------------------------------------------|

---------------------------7777--9999--11-11-11-11--12-12-12-12-----|

--0000--4444--5555--7777--------------------------------------------|

---------------------------------------------|

---------------------------------------------|

--12--11--9--7~~~~---------------------------|

---------------------------------------------|Added by tabs-database.com and our distinguished partners

Get this song at:  amazon.com sheetmusicplus.com

Share your thoughts

0 Comments found