Misc Unsigned Bands

Misc Unsigned Bands - Not In Public - Insomnia guitar tab

Song: Insomnia

Artist: Not in Public

Album: Jive Turkey

Hot Pocket of Choice: Four Meat & Four Cheese

Intro:

|---------------------------------------------|

|---------------------------------------------|

|---------------------------------------------| times 4

|------------7-7-7--7-7------------9-9-9--9-9-|

|-9-9-9--9-9-5-5-5--5-5-7-7-7--7-7-7-7-7--7-7-|

|-7-7-7--7-7------------5-5-5--5-5------------|

Verse:

(This is played with a bass, but it can also be palm-muted)

|--------------------------------------------------------------------|

|--------------------------------------------------------------------|

|--------------------------------------------------------------------|

|--------------------------------------------------------------------|

|-7-7-7-7-7-7-7-7-7-7-7-7-7-7-7-7-5-5-5-5-5-5-5-5-5-5-5-5-5-5-5-5----|

|-5-5-5-5-5-5-5-5-5-5-5-5-5-5-5-5-3-3-3-3-3-3-3-3-3-3-3-3-3-3-3-3----|

|--------------------------------------------------------------------|

|--------------------------------------------------------------------|

|--------------------------------------------------------------------|

|---------------------------------7-7-7-7-7-7-7-7-7-7-7-7-7-let this-|

|-7-7-7-7-7-7-7-7-7-7-7-7-7-7-7-7-5-5-5-5-5-5-5-5-5-5-5-5-5--ring----|

|-5-5-5-5-5-5-5-5-5-5-5-5-5-5-5-5------------------------------------|

times 3

Chorus:

|---------------------------------------------|

|---------------------------------------------|

|---------------------------------------------| times 3

|------------7-7-7--7-7------------9-9-9--9-9-|

|-9-9-9--9-9-5-5-5--5-5-7-7-7--7-7-7-7-7--7-7-|

|-7-7-7--7-7------------5-5-5--5-5------------|

|------------------------------------------------------------------------|

|------------------------------------------------------------------------|

|------------------------------------------------------------------------|

|------------7-7-7--7-7--------------------------------------------------|

|-9-9-9--9-9-5-5-5--5-5--7-7-7-7-7-7-7-7-7-7-7-7-7-7-7-7-7-7-7-7-7-7-7-7-|

|-7-7-7--7-7-------------5-5-5-5-5-5-5-5-5-5-5-5-5-5-5-5-5-5-5-5-5-5-5-5-|

|----------|

|----------|

|----------|

|----------|

|-7--------|

|-5--------|

Bridge:

(This is played with a bass, but it can also be palm-muted)

|--------------------------------------------------------------------|

|--------------------------------------------------------------------|

|--------------------------------------------------------------------|

|--------------------------------------------------------------------|

|-7-7-7-7-7-7-7-7-7-7-7-7-7-7-7-7-5-5-5-5-5-5-5-5-5-5-5-5-5-5-5-5----|

|-5-5-5-5-5-5-5-5-5-5-5-5-5-5-5-5-3-3-3-3-3-3-3-3-3-3-3-3-3-3-3-3----|

|--------------------------------------------------------------------|

|-----------------------------------------------------------let this-|

|------------------------------------------------------------ring &--|

|---------------------------------7-7-7-7-7-7-7-7-7-7-7-7-7--no palm-|

|-7-7-7-7-7-7-7-7-7-7-7-7-7-7-7-7-5-5-5-5-5-5-5-5-5-5-5-5-5--muting--|

|-5-5-5-5-5-5-5-5-5-5-5-5-5-5-5-5------------------------------------|

times 2

Outro

|---------------------------------------------|

|---------------------------------------------|

|---------------------------------------------|

|------------7-7-7--7-7------------9-9-9--9-9-|

|-9-9-9--9-9-5-5-5--5-5-7-7-7--7-7-7-7-7--7-7-|

|-7-7-7--7-7------------5-5-5--5-5------------|

|---------------------------------------------------|

|---------------------------------------------------|

|---------------------------------------------------|

|---------------------------------------------------|

|-7-7-7-7-7-7-7-7-7-7-7-7-7-7-7-7-7-7-7-7-7-7-7-7-9-|

|-5-5-5-5-5-5-5-5-5-5-5-5-5-5-5-5-5-5-5-5-5-5-5-5-7-|

Song Order:

Intro

Verse

Chorus

Verse

Chorus

Bridge

Chorus

Chorus

Outro

Verse 1:

I need to get up in the morning

But I just can't go to bed

Since the birds just won't stop singing

And there is so much in my head

So I lie there twisting turning

Sweating onto all my sheets

And the seconds keep on jerking

Wishing somehow I could sleep

I wish you could see

Chorus:

I'm so tired I could

Sleep through a fire I wish

I would expire so I can

Sleep a little bit longer

I'm so tired I could

Sleep through a fire I wish

I would expire so I can

Sleep a little bit longer

Sleep a little bit longer

Sleep a little bit longer

Sleep

Verse 2:

I know that work's tomorrow

But not if I don't rest

They must expect a no-show

Because I won't perform my best

Is it just that I am hungry

Or am I starting to get sick

I need drugs to make me sleepy

I need to take them really quick

I wish you could see

Chorus:

I'm so tired I could

Sleep through a fire I wish

I would expire so I can

Sleep a little bit longer

I'm so tired I could

Sleep through a fire I wish

I would expire so I can

Sleep a little bit longer

Sleep a little bit longer

Sleep a little bit longer

Sleep

That's the whole song. YAY!!!!!!!!!!!!!!!!!!!!!!!!!!!!!!!

Added by tabs-database.com and our distinguished partners

Get this song at:  amazon.com sheetmusicplus.com

Share your thoughts

0 Comments found