Misc Unsigned Bands

Misc Unsigned Bands - Heroicseven - Killed A Squirrel guitar tab

Info This band exsists its based in california. three people no drum just a

tamboreen and bongos its cool but different it is a band the members are scott

brian and phill. scots the singer brian is rythm and phil is lead guitar. it works it does.

intro

e------------|

B------------|

G------------| X4

D------------|

A--9-5-7-5-4-|

E-7-3-5-3-2--|

Verse

e------------|

B------------|

G------------|X8

D------------|

A-9-5-7-5-4--|

E-7-3-5-3-2--|

Chorus

e---------------------------------------|

B---------------------------------------|

G---------------------------------------|X8

D---------------------------------------|

A-99999999-55555555-77777777-5555-4444--|

E-77777777-33333333-55555555-3333-2222--|

Play verse again

play chorus

1st guitar plays

Verse

e----------------|

B----------------|

G----------------|X8

D----55-77-------|

A-22-33-55-55-77-|

E-00-------33-55-|

solo- is improvised so go for it just bending and sliding and penatonic scales. go gettum.

Get this song at:  amazon.com sheetmusicplus.com

Share your thoughts

0 Comments found