Misc Unsigned Bands

Misc Unsigned Bands - Eli Overshoot - Memories Are Bold Statements guitar tab

Eli Overshoot

album, Xactly.

track #1

Memories are bold statements

INTRO W/OUT DISTORTION

e|----------------------------------------------------|

B|----------------------------------------------------|

G|----------------------------------------------------|

D|----------------------------------------------------|

A|--4---4---4---4---9---9---9---9---2---2---2---2---2-|

E|-0---0---0---0---0---0---0---0---0---0---0---0---0--|

e|------------------------------------------------------|

B|------------------------------------------------------|

G|------------------------------------------------------|

D|------------------------------------------------------|

A|--4---4---4---4---12---12---12---12---2----2----2---2-|

E|-0---0---0---0---0---0----0----0----0-----0---0---0---|

REPEAT TWICE.

then on the third time do all that but on the second part,

instead of going back to the 2 from the 12 go...

e|----------------|

B|----------------|

G|----------------|

D|----------------|

A|-12--12-11--11--|

E|0---0---0---0---|Added by tabs-database.com and our distinguished partners

Get this song at:  amazon.com sheetmusicplus.com

Share your thoughts

0 Comments found