Misc Unsigned Bands

Misc Unsigned Bands - The Little Demons - I Wanna Smell Your Vagina guitar tab

Song:I wanna smell your vagina

Artist: Little Demons

Album: Acoustic Metal

Tuning: Standard

Email: fernie_s@yahoo.com

Tabbed by: Fernie Soto / Fernsterr

/ = Slide

* = Palm Muting

This is an enjoying song to listen and to peform.

Intro:

|-----------------------------------------------------------------|

|-----------------------------------------------------------------|

|-----------------------------------------------------------------|

|-----2----2-----2----2-----2-----2-----2-----2------2-----2---2--|

|---2----2-----2----2-----2-----2-----2-----2------2-----2-----2--|

|-0-----0----0----0-----3-----3-----3-----1------1-----1-------0--|

Verse

|--------------------------|

|--------------------------| this is played

|--------------------------| for all the

|-2-2-2-2-2-2-2--1-1-1-1-1-| verses

|-2-2-2-2-2-2-2--1-1-1-1-1-|

|-0-0-0-0-0-0-0--0-0-0-0-0-|

Pre-Chorus

|-------------------------------------|

|-------------------------------------|

|-------------------------------------|

|-2-2-2-2-2-2-2--1-1-1-1-1-x-1-1-1----|

|-2-2-2-2-2-2-2--1-1-1-1-1-x-1-1-1----|

|-0-0-0-0-0-0-0--0-0-0-0-0-x-0-0-0----|

* * *

Chorus

"Cause I wanna smell...."

|--------------------------|

|--------------------------|

|--------------------------|

|-2-2-2-2-2-2-2--1-1-1-1-1-|

|-2-2-2-2-2-2-2--1-1-1-1-1-|

|-0-0-0-0-0-0-0--0-0-0-0-0-|

Outro "Play this twice"

|-0-0-7-0-0-7-0-0-7-0-8-0-|-0-0-5-0-0-7-0-0-3-0-5--|

|-------------------------|------------------------|

|-------------------------|------------------------|

|-------------------------|------------------------|

|-------------------------|------------------------|

|-------------------------|------------------------|

Lyrics:

I want you to suck my lion king

I want you to suck my STD's out

I wanna drink your piss

I want you to suck my lion king

I wanna stick my tounge in your asshole

and lick your herpes, your herpes

I wanna lick and bite your gooch

I love the smell of your puv's

when they sweat in blood

Cause I wanna smell your vagina

I wanna smell your vagina

I wanna smell your vagina

I love the smell of your puv's in blood

I wanna smell your vagina

I wanna smell your vagina

I love the way you look at me when you orgasm

the sight of blood and cum

the smell of cigarett burning in you asshole

you've just shitted on my stomach

I want you to lick,suck my hairy chest

Bite my nipples untill they turn red

Suck my lion king

Feel my balls they feel like a sweater

the smell of blood and puv's

How I love to fuck you

Cause I wanna smell your vagina

I wanna smell your vagina

I wanna smell your vagina

I love the smell of your blood and puv's

You know when I like to fuck you

The sight of cum and blood

It taste so good to drink your piss

Thats it enjoy!!

Get this song at:  amazon.com sheetmusicplus.com

Share your thoughts

0 Comments found