Misc Unsigned Bands

Misc Unsigned Bands - Ssg - Voyager guitar tab

-------------------------------------------------------------------------------

Voyager - S.S.G

-------------------------------------------------------------------------------

Tabbed by: Zack

Email: webmaster at tabs-database.com.com

Tuning: E A D G B E

Intro

e|---5-7-8-5-7-8-5-7-8-12-10-8-13---------|

B|---8-10-11-8-10-11-8-10-11-15-13-11-16--|

G|----------------------------------------|

D|----------------------------------------|

A|----------------------------------------|

E|----------------------------------------|

e|---3-5-6-3-5-6-3-5-6-14-12-10-8---|

B|---6-8-9-6-8-9-6-8-9-17-15-13-11--|

G|----------------------------------|

D|----------------------------------|

A|----------------------------------|

E|----------------------------------|

e|---5-7-8-5-7-8-5-7-8-12-10-8-13---------|

B|---8-10-11-8-10-11-8-10-11-15-13-11-16--|

G|----------------------------------------|

D|----------------------------------------|

A|----------------------------------------|

E|----------------------------------------|

e|---3-5-6-3-5-6-3-5-6-/17-15-12-10--|

B|---6-8-9-6-8-9-6-8-9-/20-18-15-13--|

G|-----------------------------------|

D|-----------------------------------|

A|-----------------------------------|

E|-----------------------------------|

e|---20-19-17-15-13-12-10-8--|

B|---18-17-15-13-11-10-8-6---|

G|---------------------------|

D|---------------------------|

A|---------------------------|

E|---------------------------|

e|---17-16-14-12-10-9-7-5--|

B|---15-14-12-10-8-7-5-3---|

G|-------------------------|

D|-------------------------|

A|-------------------------|

E|-------------------------|

e|---12-11-9-7-5-3-2-0-------------------------------------------------------------------|

B|---10-9-7-5-3-1-4-2--------------------------------------------------------------------|

G|---------------------------------------------------------------------------------------|

D|---------------------------------------------------------------------------------------|

A|---------------------------------------------------------------------------------------|

E|---------------------------------------------------------------------------------------|

Verse

e|-----------------------------------------------------------------X2--|

B|---------------------------------------------------------------------|

G|---------------------------------------------------------------------|

D|---------------------------------------------------------------------|

A|---555555555555-3--1--0--2--3-777777777777-5--3--2--3--2-------------|

E|---777777777777-5--3--2--4--5-555555555555-3--1--0--2--3-------------|

Chorus

e|-----------------------------------------------------------------------|

B|---11-10-8----------8-10-8---------------------------------------------|

G|-----------10-9-10---------10--9--7--9--10--12--10--9--7--6--7--9--7*--|

D|-----------------------------------------------------------------------|

A|-----------------------------------------------------------------------|

E|-----------------------------------------------------------------------|

Then, repeat verse twice, chorus once, repeat intro...

END

| / slide up

| \\ slide down

| h hammer-on

| p pull-off

| ~ vibrato

| * Pinch harmonics

| x repeat

===============================================================================Added by tabs-database.com and our distinguished partners

Get this song at:  amazon.com sheetmusicplus.com

Share your thoughts

0 Comments found