Misc Unsigned Bands

Misc Unsigned Bands - Lightspeed Champion - Galaxy Of The Lost guitar tab

Galaxy Of The Lost - Lightspeed Champion

-------------------------------------------------------------------------------

Tabbed by: Punkextremest

Email: webmaster at tabs-database.com.com

Tuning: Standard.

This is a song by ex-Test Icicle Dev's new band, Lightspeed Champion. Im very sorry that

only the intro but im sure its 100%. If you do have any probs then PM me or email me.

Intro:

e|------------------------------------------------------------------------------|

b|----6-6---------5-----------6-----------5---5-5-------------------------------|

G|--------5h7--4-------5\\-2------5h7--4-4---4-----------------------------------|

D|----0-----------------------0-------------------------------------------------|

A|----------------3----3\\-------------------------------------------------------|

E|-------------3----------1-----------3-----------------------------------------|

e|---------------------------------------------------------------------------|

B|---6--6p5--------5--8p5-------6---------------1---1-1----------------------|

G|----------7p5-4--------7p5-6-----7h5-4\\2-0---------------------------------|

D|---0--0--------------------------------------------------------------------|

A|-----------------3------------5-------------3-3-3-3-3----------------------|

E|---------------------------------------------------------------------------|

Unfortunatly i cant seem to get the verse chords so im gonna work on those and send

tab when ive done that. later :]Added by tabs-database.com and our distinguished partners

Get this song at:  amazon.com sheetmusicplus.com

Share your thoughts

0 Comments found