Misc Unsigned Bands

Misc Unsigned Bands - Necroninja - Nightmare Tonight guitar tab

e|------------------------------------------------------------------------------------|

B|------------------------------------------------------------------------------------|

G|------------------------------------------------------------------------------------|

D|-------------------7-----7----------------------------------------------------------|

A|----------------8-----8-----8-------8-----------------------------------------------|

D|-------------0-------------------0--------------------------------------------------|

e|------------------------------------------------------------------------------|

B|------------------------------------------------------------------------------|

G|------------------------------------------------------------------------------|

D|-------------------7-----7----------------------------------------------------|

A|----------------8-----8-----8-------8-----------------------------------------|

D|-------------0-------------------0--------------------------------------------|

e|-----------------------------------------------------------------------------|

B|-----------------------------------------------------------------------------|

G|-----------------------------------------------------------------------------|

D|-------------------7-----7---------------------------------------------------|

A|----------------8-----8-----8-------8----------------------------------------|

D|-------------8-------------------8-------------------------------------------|

e|--------------------------------------------------------------------------------|

B|--------------------------------------------------------------------------------|

G|--------------------------------------------------------------------------------|

D|------------------8-----------7----------7--------------------------------------|

A|---------------5-----------5----------------------------------------------------|

D|------------5-----------5-----------5-------------------------------------------|Added by tabs-database.com and our distinguished partners

Get this song at:  amazon.com sheetmusicplus.com

Share your thoughts

0 Comments found