Misc Unsigned Bands

Misc Unsigned Bands - Btg - Revelation Of Snark guitar tab

This is my first song that I've ever written so don't

expect it to be that great.

Written By: Snark (me)

Intro: ::Revelation of Snark::

(Medium Distortion)

(REPEAT 4 TIMES)

PM]--------] PM]--------] PM]---------] PM]--------]

E]--------------------------------------------------------------------------

B]--------------------------------------------------------------------------

G]--------------------------------------------------------------------------

D]--------------------------------------------------------------------------

A]------0-0-0-0----7----0-0-0-0----6----0-0-0-0----7----0-0-0-0----8--------

D]--------------------------------------------------------------------------

(Heavy Distortion)

(REPEAT 4 TIMES)

PM]----------] PM]--------] PM]------] PM]----------]

E]--------------------------------------------------------------------------

B]--------------------------------------------------------------------------

G]--------------------------------------------------------------------------

D]----------------------7---------------6---------------7---------------8---

A]-----------0-0-0-0----7----0-0-0-0----6----0-0-0-0----7----0-0-0-0----8--

D]----------------------7---------------6---------------7---------------8---

(Heavy Distortion)

(REPEAT TWICE)

PM]--------------] PM]-------] PM]--------] PM]-------]

E]--------------------------------------------------------------------------

B]--------------------------------------------------------------------------

G]--------------------------------------------------------------------------

D]------------------12--------------8------------7---------------6--7-------

A]------------------12--------------8------------7---------------6--7-------

D]----12-12-12-12---12-----8-8-8-8--8---7-7-7-7--7------6-6-6-6--6--7-------

PM]--------------] PM]-------] PM]--------] PM]-------]

E]--------------------------------------------------------------------------

B]--------------------------------------------------------------------------

G]--------------------------------------------------------------------------

D]------------------12--------------8------------7---------------6--8-------

A]------------------12--------------8------------7---------------6--8-------

D]----12-12-12-12---12-----8-8-8-8--8---7-7-7-7--7------6-6-6-6--6--8-------

(REPEAT FOUR TIMES)

PM]-----------] PM]-----------] PM]----------]

E]--------------------------------------------------------------------------

B]--------------------------------------------------------------------------

G]--------------------------------------------------------------------------

D]--------------------------12------------------11------------------10------

A]--------------------------12------------------11------------------10------

D]------------12-12-12-12---12----11-11-11-11---11----10-10-10-10---10------

PM]----------]

E]--------------------------------------------------------------------------

B]--------------------------------------------------------------------------

G]--------------------------------------------------------------------------

D]-----------------------10-------------------------------------------------

A]-----------------------10H12P10-------------------------------------------

D]-----------10-10-10-10-10-------------------------------------------------

SOLO:

(HEAVY DISTORTION) (SLIGHT FLANGE)

~~~~~ ~~~~~ ~~~~ ~~~~~ ~~~~

E]----16----16----16---16----16---16/---------------------------------------

B]----15----15----15---15----15---15/---------------------------------------

G]--------------------------------------------------------------------------

D]--------------------------------------------------------------------------

A]--------------------------------------------------------------------------

D]--------------------------------------------------------------------------

(REPEAT FOUR TIMES)

E]--------------------------------------------------------------------------

B]--------------------------------------------------------------------------

G]--------------------------------------------------------------------------

D]----0--15--17--0--18--17--15--17--0--15--17--0--15--17--15--17------------

A]--------------------------------------------------------------------------

D]--------------------------------------------------------------------------

(REPEAT TWICE)

E]--------------------------------------------------------------------------

B]--------------------------------------------------------------------------

G]------------------------------------------------17------------------------

D]----0--15--17--0--18--17--15--17--0--15--17--0------18--17--15------------

A]--------------------------------------------------------------------------

D]--------------------------------------------------------------------------

(PLAY ONCE) ~~~~~~~~~~~~~~~~~~~~~

E]--------------------------------------------------------------------------

B]--------------------------------------------------------------------------

G]--------------------------------------------------------------------------

D]----0--15--17--0--18--17--15--17--0--15--17--0----------------------------

A]------------------------------------------------18------------------------

D]--------------------------------------------------------------------------

~~~~~~~~~~~~~~~~~~~~~

E]--------------------------------------------------------------------------

B]--------------------------------------------------------------------------

G]--------------------------------------------------------------------------

D]----0--15--17--0--18--17--15--17--0--15--17--0----------------------------

A]------------------------------------------------16------------------------

D]--------------------------------------------------------------------------

~~~~~~~~~~~~~~~~~~~~~

E]--------------------------------------------------------------------------

B]--------------------------------------------------------------------------

G]--------------------------------------------------------------------------

D]----0--15--17--0--18--17--15--17--0--15--17--0----------------------------

A]------------------------------------------------17------------------------

D]--------------------------------------------------------------------------

(REPEAT TWICE)

E]--12H15H18--12H15H18--12H15H18--12H15H18--12H15H18------------------------

B]--------------------------------------------------------------------------

G]--------------------------------------------------------------------------

D]--------------------------------------------------------------------------

A]--------------------------------------------------------------------------

D]--------------------------------------------------------------------------

E]--12H15H17--12H15H17--12H15H17--12H15H17--12H15H17------------------------

B]--------------------------------------------------------------------------

G]--------------------------------------------------------------------------

D]--------------------------------------------------------------------------

A]--------------------------------------------------------------------------

D]--------------------------------------------------------------------------

(REPEAT TWICE)

E]--12H15H18--12H15H18--12H15H18--12H15H18--12H15H18------------------------

B]--------------------------------------------------------------------------

G]--------------------------------------------------------------------------

D]--------------------------------------------------------------------------

A]--------------------------------------------------------------------------

D]--------------------------------------------------------------------------

E]--12H15H22--12H15H22--12H15H22--12H15H22--12H15H22------------------------

B]--------------------------------------------------------------------------

G]--------------------------------------------------------------------------

D]--------------------------------------------------------------------------

A]--------------------------------------------------------------------------

D]--------------------------------------------------------------------------

E]--12H15H17--12H15H17--12H15H17--12H15H17--12H15H17------------------------

B]--------------------------------------------------------------------------

G]--------------------------------------------------------------------------

D]--------------------------------------------------------------------------

A]--------------------------------------------------------------------------

D]--------------------------------------------------------------------------

~~~~~~~~~~~~~~~~~~~~~~~

E]--12H15H21--12H15H21--12H15H21--12H15H21--12H15H21------------------------

B]--------------------------------------------------------------------------

G]--------------------------------------------------------------------------

D]--------------------------------------------------------------------------

A]--------------------------------------------------------------------------

D]--------------------------------------------------------------------------

____________________________________________________________________________

(HEAVY DISTORTION) (REPEAT TWICE)

PM]--] [--] [--] [--]

E]--------------------------------------------------------------------------

B]--------------------------------------------------------------------------

G]--------------------------------------------------------------------------

D]--8-----7-----5-----3-----2H3P2--0----------------------------------------

A]--------------------------------------------------------------------------

D]----0-0---0-0---0-0---0-0-------------------------------------------------

PM[--] [--] [--] [--] [--] [--] [--] [--] [--] [--]

E]--------------------------------------------------------------------------

B]--------------------------------------------------------------------------

G]--------------------------------------------------------------------------

D]-10-----8-----7-----5-----7-----3--12----10-----8-----7-----10-----5------

A]--------------------------------------------------------------------------

D]----0-0---0-0---0-0---0-0---0-0-------0-0---0-0---0-0---0-0----0-0--------

PM]--] [--] [--] [--]

E]--------------------------------------------------------------------------

B]--------------------------------------------------------------------------

G]--------------------------------------------------------------------------

D]--8-----7-----5-----3-----2H3P2--0----------------------------------------

A]---------------------------------0----------------------------------------

D]----0-0---0-0---0-0---0-0--------0----------------------------------------

Outro:

(GUITAR #1) (Medium Distortion)

PM]--------] PM]--------] PM]---------] PM]--------] ~~~~

E]--------------------------------------------------------------------------

B]--------------------------------------------------------------------------

G]--------------------------------------------------------------------------

D]---------------------------------------------------------------------7----

A]--0-0-0-0----7----0-0-0-0----6----0-0-0-0----7----0-0-0-0----8-------7----

D]---------------------------------------------------------------------7----

(GUITAR 2) - (Medium Distortion) ~~~~~~~~~~~~~ ~~~~

E]--------------------------------------------------------------------------

B]--------------------------------------------------------------------------

G]--------------------------------------------------------------------------

D]--7--5--7---9--7--9---10--9--10--10/12--10--12----14-----------------7----

A]---------------------------------------------------------------------7----

D]---------------------------------------------------------------------7----

(Fades Out)

Legend:

PM]-] Palm mute indicated Section [----]

Tuning: e, B, G, D, A, D

~~ = Vibrato

This Song Should be played at a pretty fast beat.Added by tabs-database.com and our distinguished partners

Get this song at:  amazon.com sheetmusicplus.com

Share your thoughts

0 Comments found