Misc Unsigned Bands

Misc Unsigned Bands - Spank - Just guitar tab

----------------------------------------------------------------------------

just - spank

----------------------------------------------------------------------------

Tabbed by: Jimmy

Email: i forget

spank is the coolest local band in the west

Tuning: standard

e|-------------------------------------------------------------------------|

B|-------------------------------------------------------------------------|

G|---------9---2---4---9---9/2/4--------h9/2/4----6----4---2---------------|

D|-----9---9---2---4---9----------14/17---------2----4-----2---------------

A|-----9---7---0---2---7-----------------------------------0---------------|

E|-----7-------------------------------------------------------------------|

e|--------------------------------------------0----------------------------|

B|-------------------------------16/1-----------0--------------------------|

G|-------17h20----15--12--15-----------1-----------20/17---15--12--15------|

D|---------------------------15----------2-----------------------------15--|

A|-----------------------------------------2-------------------------------|

E|-------------------------------------------------------------------------|

| / slide up

| slide down

| h hammer-on

| p pull-off

| ~ vibrato

| + harmonic

| x Mute note

============================================================================

Get this song at:  amazon.com sheetmusicplus.com

Share your thoughts

0 Comments found