Misc Unsigned Bands

Misc Unsigned Bands - The Road To Damascus - Too Bad Too Late guitar tab

e-------------------------------------------------------10----15-14---------|

b----------------------------------------------------12---------------------|

g----------11---------9---------11---------9---11/12------------------------|

D-----9-12-------9-12------9-12-------9-12----------------------------------|

A--10---------10--------10---------10---------------------------------------|

E---------------------------------------------------------------------------|

e--/-20-19~---------12-12-12-12-10-10-10-10-14-14-14-14-12-12-12-12-15-15-15-|

b----------------------------------------------------------------------------|

g----------------------------------------------------------------------------|

D----------------------------------------------------------------------------|

A----------------------------------------------------------------------------|

E----------------------------------------------------------------------------|

e--15-14-14-14-14-17-17-17-17-15-15-15-15-19-19-19-19-17-17-17-17-20-20-20--|

b---------------------------------------------------------------------------|

g---------------------------------------------------------------------------|

D---------------------------------------------------------------------------|

A---------------------------------------------------------------------------|

E---------------------------------------------------------------------------|

e--20-19-19-19-19-22-22-22-22-20-20-20-20-19-19-19-19-17-17-17-17-15-15-15--|

b---------------------------------------------------------------------------|

g---------------------------------------------------------------------------|

D---------------------------------------------------------------------------|

A---------------------------------------------------------------------------|

E---------------------------------------------------------------------------|

e--15-14-14-14-14-12-12-12-12-10-----10--------------------------------------|

b---------------------------------------12-----------------------------------|

g------------------------------------------1211------------------------------|

D------------------------------------------------12-9------------------------|

A-----------------------------------------------------10-9-------------------|

E----------------------------------------------------------10----------------|

D5 C5 B5 A5 G G Am Bm

e--------------------3-------3--/-/-x--5--/-/-x--7-/-/-/-/-/-/-/------------|

b--------------------3-------3--/-/-x--5--/-/-x--7-/-/-/-/-/-/-/------------|

g--------------------4-------4--/-/-x--5--/-/-x--7-/-/-/-/-/-/-/------------|

D--------------------5-------5--/-/-x--7--/-/-x--9-/-/-/-/-/-/-/------------|

A--12-x-10-x-9-x-7-x-5-------5--/-/-x--7--/-/-x--9-/-/-/-/-/-/-/------------|

E--10-x-8--x-7-x-5-x-3-------3--/-/-x--5--/-/-x--7-/-/-/-/-/-/-/------------|

|then goes to {Em7 D7 Cmaj7} with same rythm

|then repeat all chords with solo guitar on melodyAdded by tabs-database.com and our distinguished partners

Get this song at:  amazon.com sheetmusicplus.com

Share your thoughts

0 Comments found