Misc Unsigned Bands

Misc Unsigned Bands - Rejection - Darkness On Overdrive guitar tab

Band: Rejection (unsigned)

Song: Darkness On Overdrive

Intro:

E-|------------------------------------------------------|---|

B-|-3-1-3-4--4-3-1-0-1--3-1-3-4--4-3-1-0-1-|-----------------|

G-|------------------------------------------------------|---|

D-|------------------------------------------------------|---|

A-|------------------------------------------------------|---|

E-|------------------------------------------------------|---|

E-|----------------------------------------------------------------------|---|

B-|----------------------------------------------------------------------|---|

G-|------------------------------------------------------------------x2|-----|

D-|-3-3-3-3-3-3-3-3-3-3-3-3-3-3-3-3-3-3-3-3-3-3-3-3----|---------------------|

A-|-3-3-3-3-3-3-3-3-3-3-3-3-3-3-3-3-3-3-3-3-3-3-3-3----|---------------------|

E-|-1-1-1-1-1-1-1-1-1-1-1-1-1-1-1-1-1-1-1-1-1-1-1-1----|---------------------|

verses:

E-|--------------------------------------------------------------------------|---|

B-|--------------------------------------------------------------------------|---|

G-|--------------------------------------------------------------------------|---|

D-|-2-2-2--2-2-2--2-2-2--2-2-2--2-2-2--2-2-2--2-2-2--2-2-2-|---------------------|

A-|-2-2-2--2-2-2--2-2-2--2-2-2--2-2-2--2-2-2--2-2-2--2-2-2-|---------------------|

E-|-0-0-0--0-0-0--0-0-0--0-0-0--0-0-0--0-0-0--0-0-0--0-0-0-|---------------------|

Chorus:

E-|--------------------------------------------------------------------------------------------------------|--|

B-|--------------------------------------------------------------------------------------------------------|--|

G-|--------------------------------------------------------------------------------------------------------|--|

D-|--------------------------------------------------------------------------------------------------------|--|

A-|--------------------------------------------------------------------------------------------------------|--|

E-|--3-3--5-5--3-3--5-5--3-3--5-5--3-3--5-5--2-2--4-4--2-2--4-4--2-2--4-4--2-2-4-4-|--------------------------|

Pre Verse:

E-|------------------------------------------------------|---|

B-|-3-1-3-4--4-3-1-0-1--3-1-3-4--4-3-1-0-1-|-----------------|

G-|------------------------------------------------------|---|

D-|------------------------------------------------------|---|

A-|------------------------------------------------------|---|

E-|------------------------------------------------------|---|

Solo:

E-|------------------------------------------------------|---|

B-|------------------------------------------------------|---|

G-|---8b---6b------9/2--9/2--9/2--9/2------------|-----------|

D-|-----------------------------------------------x2----|----|

A-|------------------------------------------------------|---|

E-|------------------------------------------------------|---|

-E|--8-7---8-7----8-7-----8-7-----11-10-----11-10-----11-10-----11-10----------|--------------------|

-B|-------8------8-------8--------8-----------11---------11---------11----------11------|-----------|

-G|----------------------------------------------------------------------------------------------|--|

-D|------------------------------------------------------------------------------------------x2-|---|

-A|----------------------------------------------------------------------------------------------|--|

-E|----------------------------------------------------------------------------------------------|--|

E-|-----------------------------------------------------------|---|

B-|-3-1-3-4b--4-3-1-0-1b-3-1-3-4b--4-3-1-0-1b-|-------------------|

G-|-----------------------------------------------------------|---|

D-|-----------------------------------------------------------|---|

A-|-----------------------------------------------------------|---|

E-|-----------------------------------------------------------|---|

Outro:

E-|------------------------------------------------------|---|

B-|-3-1-3-4--4-3-1-0-1--3-1-3-4--4-3-1-0-1-|-----------------|

G-|------------------------------------------------------|---|

D-|------------------------------------------------------|---|

A-|------------------------------------------------------|---|

E-|------------------------------------------------------|---|

song order:

Intro

Verse

Chorus

Pre Verse

Verse

Chorus

Pre Verse

Verse

Chorus

Solo

Chorus

Outro

enjoy.Added by tabs-database.com and our distinguished partners

Get this song at:  amazon.com sheetmusicplus.com

Share your thoughts

0 Comments found