Misc Unsigned Bands

Misc Unsigned Bands - Drift - Taste guitar tab

yo..these are tabs for my very own band Drift..no it's not by coldplay..i

just wrote that so i could get it in the site..hope ya like them..and can

learn to play them. This is an acoustic song. So if you have an acoustic,

thats a good thing. This is also a very easy song to play...

Tab site: ultimate-guitar.com

Band: Drift

Title: Taste

Tabber: Josh Turk

Intro/verse

|-----------------------------|

|-----------------------------|

|----0-------------0-----0--0-|

|---2-2----0--0---2-2---0--0--|

|--2---2--0--0---2---2-3--2---|

|-0------2--3---0-------------|

Chorus

|-3--33--3--33--3--0--00--0--00--0--0--00--0--00--0--0--00--0--00--0-|

|-3--33--3--33--3--0--00--0--00--0--1--11--1--11--1--0--00--0--00--0-|

|-0--00--0--00--0--0--00--0--00--0--0--00--0--00--0--1--11--1--11--1-|

|-0--00--0--00--0--2--22--2--22--2--2--22--2--22--2--2--22--2--22--2-|

|-2--22--2--22--2--2--22--2--22--2--3--33--3--33--3--2--22--2--22--2-|

|-3--33--3--33--3--0--00--0--00--0--x--xx--x--xx--x--0--00--0--00--0-|

Solo

|---------------------------------------------|

|---------------------------------------------|

|-7-7-7-7-9-7-7/9-12-12-12-9-11-11-11-9/7-9-9-|

|---------------------------------------------|

|---------------------------------------------|

|---------------------------------------------|

Intro/Verse..x4 (start sing at 2nd)

Chorus..x2

Intro/Verse..x2

Chorus..x2

Solo..x2

Chorus.x2

Intro/Verse..x1

Lyrics: Taste

Verse: I spend nights alone

Bleeding in pain

But you get used to it

It all feels the same

At one point in time

I wasn't this way

I was popular

In every single way...

Chorus:Because I was strong!

I knew what to do

When things went wrong

Because I had Faith!!!

That was anger

That I could taste

Verse2:All the nights I spent

Alone in my bed

I hear the phone ring

But it's only in my head

Sometimes I wonder

If I should or not

Maybe someday

I'll take that shot...

Chrous...

end verse:I had Faith

I could taste the coldness

In my head

I had Taste

The faith in me

Only wants me..dead

Get this song at:  amazon.com sheetmusicplus.com

Share your thoughts

0 Comments found