Misc Unsigned Bands

Misc Unsigned Bands - Red Degree - Out Of Reach guitar tab

Song: Out of Reach

Band: Red Degree

Tabber: PunkJurbe

p.m: Palm mute

Guitars 1 and 2: W/ Distorted

Intro:

E----------------------------------------------------------------------------|

b----------------------------------------------------------------------------|

g----------------------------------------------------------------------------|

d----7-----------------------------------------------------------------------|

a----7----7-7-7-7-7-7-7-7-7-7-7-7-7-7----------------------------------------|

e----5----5-5-5-5-5-5-5-5-5-5-5-5-5-5----------------------------------------|

p.m----------------------------------------------------------------|

Verse:

E-|--------------------------------------------------------------------------|

b-|--------------------------------------------------------------------------|

g-|.-------------------------------------9-----------------------------------|

d-|.-7-----------------------------------9----9-9-9-9-9-9-9-9-9-9-9-9-9-9----|

a-|--7----7-7-7-7-7-7-7-7-7-7-7-7-7-7----7----7-7-7-7-7-7-7-7-7-7-7-7-7-7----|

e-|--5----5-5-5-5-5-5-5-5-5-5-5-5-5-5----------------------------------------|

p.m------------------------] p.m----------------------------|

E---------------------------------------------------------------------------|

b---------------------------------------------------------------------------|

g-------------------------7-------------------------------------------------|

d----7--------------------7----7-7-7-7-7-7----7-----------------------------|

a----7----7-7-7-7-7-7-----5----5-5-5-5-5-5----7----7-7-7-7-7-7--------------|

e----5----5-5-5-5-5-5-------------------------5----5-5-5-5-5-5--------------|

p.m--------] ^ p.m--------] p.m----------------------|

This again last time

Chorus:

E-|----------------------------------------------------------------|--------|

b-|----------------------------------------------------------------|--------|

g-|.----------------------------------7---------------------------.|--------|

d-|.--5---------------7---------------7----7-7-7-7----7-----------.|--------|

a-|---5----5-5-5-5----7----7-7-7-7----5----5-5-5-5----7----7-7-7-7-|--------|

e-|---3----3-3-3-3----5----5-5-5-5--------------------5----5-5-5-5-|--------|

Interlude:

E-|--------------------------------------------------------------|----------|

b-|--------------------------------------------------------------|----------|

g-|-------------------------------------------------------------.|----------|

d-|---7----7----7----2---------------9----9----9----2-----------.|----------|

a-|---7----7----7----2----2-2-2-2----9----9----9----2----2-2-2-2-|----------|

e-|---5----5----5----0----0-0-0-0----7----7----7----0----0-0-0-0-|----------|

Bridge:

[1. [2.

E-|----------------------------------------------------------------|---------|

b-|----------------------------------------------------------------|---------|

g-|.--------------------------------------------------------------.|---------|

d-|.---2-----------------------------------4----------------------.|----4----|

a-|----2----2-2-2-2-2-2-2-2-2-2-2-2-2-2----4----4-4-4-4-4-4-4-4-4-4|----4----|

e-|----0----0-0-0-0-0-0-0-0-0-0-0-0-0-0----2----2-2-2-2-2-2-2-2-2-2|----2----|

Outro:

[1. 2. [3.

E-|-----------------------------------------|-------------------------------|

b-|-----------------------------------------|-------------------------------|

g-|.---------------------------------------.|--------------------9----9-----|

d-|.---7----7----7----9-----9--9-----------.|----7---------------9----9-----|

a-|----7----7----7----9--9--9--9--9-9-9-9-9-|----7----7-7-7-7----7----7-----|

e-|----5----5----5----7--7--7--7--7-7-7-7-7-|----5----5-5-5-5---------------|

Flow:

Intro

Verse

Chorus

Verse

Chorus

Interlude

Bridge

Chorus

Outro

Lyrics:

Verse 1:

I met you on the party last night

You was so cool, you twisted all my mind

The next day I kept thinking about you

You are so cute, I was so uggly

A perfect fool

Chorus:

Out of Reach, you`re totally Out of Reach

Out of Reach, I´m fallin back to Hell

Verse 2:

I think I`m 100 % maniac

I can`t stop thinking about you

You put a spin on my world

I`m breaking down

I`m so lonely

I`m gonna commit suicide

Chorus

Interlude (no lyrics)

Bridge:

And when I look between the stars

I think I see your face

Yeah!

Chorus

Outro (no lyrics)

Enjoy!Added by tabs-database.com and our distinguished partners

Get this song at:  amazon.com sheetmusicplus.com

Share your thoughts

0 Comments found