Misc Unsigned Bands

Misc Unsigned Bands - Turn - Do-hicky guitar tab

artist:tUrn (This band just formed)

song:do-hicky

tabber:sportsjunkie2009@yahoo.com(a.k.a. Nate)

tuning is in drop D

for those of you who don't know what that is,you're just PSOL.

verse 2x (play with out o.d.)

e------------------------------------------------------------------|

b------------------------------------------------------------------|

g------------------------------------------------------------------|

d-------x6--------x6---------x6---------x6---------x6--------------|

a----00--------00--------00----------00---------00-----------------|

d--0---------3---------1-----------0----------5--------------------|

chorus 2x (play with o.d.)

e------------------------------------------------------------------|

b------------------------------------------------------------------|

g---------3----------------------------5---------------------------|

d-3-------3------1------5------3-------5------1------5------3------|

a-3-x6---1--x6---1-x6---5-x6---3-x6---3--x6---1-x6---5-x6---3-x6---|

d-3--------------1------5------3--------------1------5------3------|

e------------------------------------------------------------------|

b------------------------------------------------------------------|

g------------------------------------------------------------------|

d-3------5---------------------------------------------------------|

a-3-x6---5-x6------------------------------------------------------|

d-3------5---------------------------------------------------------|

That's it; it's just a song that I was messing around with. It's 100%

accurate. After all, I made it!

Go Western Oaks!

Get this song at:  amazon.com sheetmusicplus.com

Share your thoughts

0 Comments found