Misc Unsigned Bands

Misc Unsigned Bands - The Random Rockers- Wait For Me guitar tab

This is the most complete song ive written. Sorry if its messy

i was lazy.

Intro

|------------------------------------|

|------------------------------------|

|--12--12--12--12-(12-12-10h12-10h13)| notes in parentheses play x4

|10--10--10--10---(10-10)------------|

|------------------------------------|

|------------------------------------|

Chorus

|---------------------|

|---------------------|

|12(x8)7(x8)9(x8)5(x8)| x4 On fourth play 3/5 chord x16

|10(x8)5(x8)7(x8)3(x8)|

|---------------------| moderate pace

|---------------------|

Break btwn chorus

|----------------|

|----------------|

|-5-7-5-5-7-5-7-9| x2

|3-----3---------|

|----------------|

|----------------|

Before solo

|-------------------------|

|-------------------------|

|12(x8)7(x8)5(x8)-7-9-7-12| moderate pace

|10(x8)5(x8)3(x8)-5-7-5-10|

|-------------------------|

|-------------------------|

Solo

|---------Tremolo pick-----------|

|--------------------------------|

|1212121215151515----------------|

|----------------1212121215151515| x4

|--------------------------------|

|--------------------------------|

|----------------|

|----------------|

|12-15-----12(15)|

|-----12-15------| x8 on 4th & 8th time add note in ()

|----------------|

|----------------|

|-----------------tremolo pick-------------------------------|

|------------------------------------------------------------|

|121212151515171717121212151515171717121212999777121212999777| x2

|------------------------------------------------------------|

|------------------------------------------------------------|

|------------------------------------------------------------|

|---------Tremolo pick-----------|

|--------------------------------|

|1212121215151515----------------|

|----------------1212121215151515| x4

|--------------------------------|

|--------------------------------|

|----------------|

|----------------|

|12-15-----12(15)|

|-----12-15------| x4 on 4th time add note in ()

|----------------|

|----------------|

|---------------|

|---------------|

|15-12-----15-12|

|-----15-12-----|

|---------------|

After Solo

|---------------------|

|---------------------|

|12(x8)7(x8)9(x8)5(x8)| x2 moderate pace

|---------------------|

|---------------------|

|---------------------|

|---------------------|

|---------------------|

|---------------------|

|10(x8)5(x8)7(x8)3(x8)|

|---------------------|

|---------------------|

Outro

|---------------------|

|---------------------|

|12(x8)7(x8)9(x8)5(x8)| x2

|10(x8)5(x8)7(x8)3(x8)|

|---------------------|

|---------------------|

|------------------------|

|------------------------|

|12(x8)7(x8)5(x8)-7-9-7-9|

|10(x8)5(x8)3(x8)-5-7-5-7|

|------------------------|

|------------------------|

Get this song at:  amazon.com sheetmusicplus.com

Share your thoughts

0 Comments found