Misc Unsigned Bands

Misc Unsigned Bands - Sea Spong-the Craigs guitar tab

Sea Sponge, the simplist by The Craigs.

PART A

B B B B B B B B B B B B B B B B

[_____________________________]

PM

PART B

e---------------------------------------

B--------------------------------------

G--9-9-9-------------7-7--------------

D--9-9-9--9-9---9--7-7--7-7---7-------

A--7-7-7--9-9---9--5-5--7-7---7------

E-----------7-7---7--------5-5---5---

PART C

e--------------------------------------------------

B-9---9---10----10---9---9-------------------------

G---9---9-----9-----9---9---9--11-9--11-9----------

D--------------------------------------------------

A--------------------------------------------------

E---------------------------------------------------

The order is:

A

B (13x)

C (2x)

B (2x)

The End.

Get this song at:  amazon.com sheetmusicplus.com

Share your thoughts

0 Comments found