Incubus

Under My Umbrella(complete Five String) Bass Tabs



More from Incubus

Incubus Tabs
Incubus Chords
Incubus Bass
Incubus Lyrics




G :----------------|------------------|----------------|----------------|
D :----------------|------------------|----------------|----------------|
A :----------------|---/8-8-8-x-8-8-8-|x-8-8-8-x-8-8-8-|x---------------|
E :----------------|1/----------------|----------------|--9-9-9-x-9-9-9-|
B :----------------|------------------|----------------|----------------|

G :----------------|----------------|----------------|----------------|
D :----------------|----------------|----------------|----------------|
A :----------------|----------------|----------------|6-6-6-6-6-6-6-4-|
E :x-9-9-9-x-9-9-9-|x-1-1-1-x-1-1-1-|x-1-1-1-1-1-1-1-|----------------|
B :----------------|----------------|----------------|----------------|

G :----------------|------------------|----------------|----------------|
D :----------------|------------------|----------------|----------------|
A :6-6-6-6-4-4-----|---/8-8-8-x-8-8-8-|x-8-8-8-x-8-8-8-|x---------------|
E :----------------|1/----------------|----------------|--9-9-9-x-9-9-9-|
B :------------2-2-|------------------|----------------|----------------|

G :----------------|----------------|----------------|----------------|
D :----------------|----------------|----------------|----------------|
A :----------------|----------------|----------------|6-6-6-6-6-6-6-4-|
E :x-9-9-9-x-9-9-9-|x-1-1-1-x-1-1-1-|x-1-1-1-1-1-1-1-|----------------|
B :----------------|----------------|----------------|----------------|

G :----------------|----------------|----------------|----------------|
D :----------------|----------------|----------------|----------------|
A :6-6-6-6-4-4-----|x-4-------4-----|------------1-1-|x-4-------4-----|
E :----------------|----1-1-x---1-1-|x-1-*-1-4-4-----|----1-1-x---1-1-|
B :------------2-2-|----------------|----------------|----------------|

G :----------------|----------------|----------------|----------------|
D :----------------|----------------|----------------|----------------|
A :------------1-1-|x-4-------4-----|------------1-1-|x---------------|
E :x-1---1-4-4-----|----1-1-x---1-1-|x-1---1-4-4-----|--4-1-1-x-4-1-1-|
B :----------------|----------------|----------------|----------------|

G :----------------|----------------|----------------|----------------|
D :----------------|----------------|----------------|----------------|
A :----------------|x-4-------4-----|------------1-1-|x-4-------4-----|
E :x-1---1-------0-|----1-1-x---1-1-|x-1---1-4-4-----|----1-1-x---1-1-|
B :--------4-4-4---|----------------|----------------|----------------|

G :----------------|----------------|----------------|----------------|
D :----------------|----------------|----------------|----------------|
A :------------1-1-|x-4-------4-----|------------1-1-|x---------------|
E :x-1---1-4-4-----|----1-1-x---1-1-|x-1---1-4-4-----|--4-1-1-x-4-1-1-|
B :----------------|----------------|----------------|----------------|

G :----------------|----------------|----------------|----------------|
D :----------------|----------------|----------------|----------------|
A :----------------|x-4-------4-----|------------1-1-|x-4-------4-----|
E :x-1---1-------0-|----1-1-x---1-1-|x-1---1-4-4-----|----1-1-x---1-1-|
B :--------4-4-4---|----------------|----------------|----------------|

G :----------------|----------------|----------------|----------------|
D :----------------|----------------|----------------|----------------|
A :------------1-1-|x-4-------4-----|------------1-1-|x---------------|
E :x-1---1-4-4-----|----1-1-x---1-1-|x-1---1-4-4-----|--4-1-1-x-4-1-1-|
B :----------------|----------------|----------------|----------------|

G :----------------|------------------|----------------|----------------|
D :----------------|------------------|----------------|----------------|
A :----------------|---/8-8-8-x-8-8-8-|x-8-8-8-x-8-8-8-|x---------------|
E :x-1---1-------0-|1/----------------|----------------|--9-9-9-x-9-9-9-|
B :--------4-4-4---|------------------|----------------|----------------|

G :----------------|----------------|----------------|----------------|
D :----------------|----------------|----------------|----------------|
A :----------------|----------------|----------------|6-6-6-6-6-6-6-4-|
E :x-9-9-9-x-9-9-9-|x-1-1-1-x-1-1-1-|x-1-1-1-1-1-1-1-|----------------|
B :----------------|----------------|----------------|----------------|

G :----------------|------------------|----------------|----------------|
D :----------------|------------------|----------------|----------------|
A :6-6-6-6-4-4-----|---/8-8-8-x-8-8-8-|x-8-8-8-x-8-8-8-|x---------------|
E :----------------|1/----------------|----------------|--9-9-9-x-9-9-9-|
B :------------2-2-|------------------|----------------|----------------|

G :----------------|----------------|----------------|----------------|
D :----------------|----------------|----------------|----------------|
A :----------------|----------------|----------------|--------------4-|
E :x-9-9-9-x-9-9-9-|x-4-4-4-x-4-4-4-|x-4-4-4-x-4-4-4-|x-1-1-1-x-1-1---|
B :----------------|----------------|----------------|----------------|

G :----------------|----------------|----------------|----------------|
D :----------------|----------------|----------------|----------------|
A :6-6-6-6-4-4-----|x-4-------4-----|------------1-1-|x-4-------4-----|
E :----------------|----1-1-x---1-1-|x-1---1-4-4-----|----1-1-x---1-1-|
B :------------2-2-|----------------|----------------|----------------|

G :----------------|----------------|----------------|----------------|
D :----------------|----------------|----------------|----------------|
A :------------1-1-|x-4-------4-----|------------1-1-|x---------------|
E :x-1---1-4-4-----|----1-1-x---1-1-|x-1---1-4-4-----|--4-1-1-x-4-1-1-|
B :----------------|----------------|----------------|----------------|

G :----------------|----------------|----------------|----------------|
D :----------------|----------------|----------------|----------------|
A :----------------|x-4-------4-----|------------1-1-|x-4-------4-----|
E :x-1---1-------0-|----1-1-x---1-1-|x-1---1-4-4-----|----1-1-x---1-1-|
B :--------4-4-4---|----------------|----------------|----------------|

G :----------------|----------------|----------------|----------------|
D :----------------|----------------|----------------|----------------|
A :------------1-1-|x-4-------4-----|------------1-1-|x---------------|
E :x-1-*-1-4-4-----|----1-1-x---1-1-|x-1---1-4-4-----|--4-1-1-x-4-1-1-|
B :----------------|----------------|----------------|----------------|

G :----------------|------------------|----------------|----------------|
D :----------------|------------------|----------------|----------------|
A :----------------|---/8-8-8-x-8-8-8-|x-8-8-8-x-8-8-8-|x---------------|
E :x-1---1-------0-|1/----------------|----------------|--9-9-9-x-9-9-9-|
B :--------4-4-4---|------------------|----------------|----------------|

G :----------------|----------------|----------------|----------------|
D :----------------|----------------|----------------|----------------|
A :----------------|----------------|----------------|6-6-6-6-6-6-6-4-|
E :x-9-9-9-x-9-9-9-|x-1-1-1-x-1-1-1-|x-1-1-1-1-1-1-1-|----------------|
B :----------------|----------------|----------------|----------------|

G :----------------|------------------|----------------|----------------|
D :----------------|------------------|----------------|----------------|
A :6-6-6-6-4-4-----|---/8-8-8-x-8-8-8-|x-8-8-8-x-8-8-8-|x---------------|
E :----------------|1/----------------|----------------|--9-9-9-x-9-9-9-|
B :------------2-2-|------------------|----------------|----------------|

G :----------------|----------------|----------------|----------------|
D :----------------|----------------|----------------|----------------|
A :----------------|----------------|----------------|--------------4-|
E :x-9-9-9-x-9-9-9-|x-4-4-4-x-4-4-4-|x-4-4-4-x-4-4-4-|x-1-1-1-x-1-1---|
B :----------------|----------------|----------------|----------------|

G :----------------|----------------|----------------|----------------|
D :----------------|----------------|----------------|----------------|
A :6-6-6-6-4-4-----|------------4-4-|6-6-6-6-4-4-4-4-|------------4-4-|
E :----------------|x-4-4-1-1-1-----|----------------|x-4-4-1-1-1-----|
B :------------2-2-|----------------|----------------|----------------|

G :----------------|----------------|----------------|----------------|
D :----------------|----------------|----------------|----------------|
A :6-6-6-6-4-4-4-4-|------------4-4-|6-6-6-6-4-4-4-2-|--2-2-2-2-2-2-2-|
E :----------------|x-4-4-1-1-1-----|----------------|----------------|
B :----------------|----------------|----------------|----------------|

G :----------------|----------------|----------------|----------------|
D :----------------|----------------|----------------|----------------|
A :----------------|------------1-3-|3-3-3-3-3-3-x---|------------1-3-|
E :2---------------|1-1-1-1-1-1-----|--------------4-|1-1-1-1-1-1-----|
B :----------------|----------------|----------------|----------------|

G :----------------|----------------|----------------|----------------|
D :----------------|----------------|----------------|----------------|
A :3-3-3-3-3-3-x---|------------1-3-|3-3-3-3-3-3-x---|------------1-3-|
E :--------------4-|1-1-1-1-1-1-----|--------------4-|1-1-1-1-1-1-----|
B :----------------|----------------|----------------|----------------|

G :----------------|----------------|----------------|----------------|
D :----------------|----------------|----------------|----------------|
A :3-3-3-3-3-3-x---|------------1-3-|3-3-3-3-3-3-x---|------------1-3-|
E :--------------4-|1-1-1-1-1-1-----|--------------4-|1-1-1-1-1-1-----|
B :----------------|----------------|----------------|----------------|

G :----------------|----------------|----------------|----------------|
D :----------------|----------------|----------------|----------------|
A :3-3-3-3-3-3-x---|------------1-3-|3-3-3-3-3-3-x---|------------1-3-|
E :--------------4-|1-1-1-1-1-1-----|--------------4-|1-1-1-1-1-1-----|
B :----------------|----------------|----------------|----------------|

G :----------------|*---------------|----------------|----------------|
D :----------------|*---------------|----------------|----------------|
A :3-3-3-3-3-3-x---|*---------------|----------------|x---------------|
E :--------------4-|*---------------|----------------|--9-9-9-x-9-9-9-|
B :----------------|*---------------|----------------|----------------|

G :----------------|----------------|----------------|----------------|
D :----------------|----------------|----------------|----------------|
A :----------------|----------------|----------------|6-6-6-6-6-6-6-4-|
E :x-9-9-9-x-9-9-9-|x-1-1-1-x-1-1-1-|x-1-1-1-1-1-1-1-|----------------|
B :----------------|----------------|----------------|----------------|

G :----------------|------------------|----------------|----------------|
D :----------------|------------------|----------------|----------------|
A :6-6-6-6-4-4-----|---/8-8-8-x-8-8-8-|x-8-8-8-x-8-8-8-|x---------------|
E :----------------|1/----------------|----------------|--9-9-9-x-9-9-9-|
B :------------2-2-|------------------|----------------|----------------|

G :----------------|----------------|----------------|----------------|
D :----------------|----------------|----------------|----------------|
A :----------------|----------------|----------------|--------------4-|
E :x-9-9-9-x-9-9-9-|x-4-4-4-x-4-4-4-|x-4-4-4-x-4-4-4-|x-1-1-1-x-1-1---|
B :----------------|----------------|----------------|----------------|

G :----------------|----------------|----------------|----------------|
D :----------------|----------------|----------------|----------------|
A :6-6-6-6-4-4-----|------------4-4-|6-6-6-6-4-4-4-4-|------------4-4-|
E :----------------|x-4-4-1-1-1-----|----------------|x-4-4-1-1-1-----|
B :------------2-2-|----------------|----------------|----------------|

G :----------------|----------------|----------------|----------------|
D :----------------|----------------|----------------|----------------|
A :6-6-6-6-4-4-4-4-|------------4-4-|6-6-6-6-4-4-4-2-|--2-2-2-2-2-2-2-|
E :----------------|x-4-4-1-1-1-----|----------------|----------------|
B :----------------|----------------|----------------|----------------|

G :----*-----------|
D :----*-----------|
A :----*-----------|
E :2---*-----------|
B :----*-----------|



Get this song at amazon.com      Ebay     Ringtones Ringtones  


Learn to play: Songwriting, Piano, Harmonica, Guitar
More Incubus lyrics available at Muzikum

Related Incubus Bass Tabs

Megelomaniac bass
Circles bass
Echo bass
When It Comes bass
Incubus-redefine bass
Wish You Were Here[100% Correct] bass
Adolescents bass
Psychopsilocybin bass
A Certain Shade Of Green (acoustic) bass
Stellar bass
Warning bass
New Skin 4 Strng bass
The Answer bass
Azwethinkweiz bass
Follow ( First Movement Of The Oddyssey) bass
Made For A Tv Movie bass
I Wish You Were Here bass
Here In My Room bass
11 A. M. bass
Battlestar Scralatchtica bass


Guitar Tabs









All tabs are property and copyright of their owners. All tabs provided for educational purposes only. Privacy Policy, DMCA

Online converter - videoconverter.com